Assorted Jelly Beans — No Time

Song: No Time
Band: Assorted Jellybeans
Tabbed by: Ryan (rdaniel@erinet.com)

intro
G:-----------------------
D:-----------------------
A:-----------------------
E:-10-7-5-9-10-7-5

Chorus
G:-----------------------------------------------------------------------------
D:-----------------------------------------------------------------------------
A:-------------------------------------------------------11-12-12-12-12
E:-10-10-10-10-7-5-5-5-5-9-10-10-10-10-----------------------

filler after intro is harmonics on 7th fret g string and 7th fret d string

Verse (main riff)
G:---------------------------6
D:---------------4-5-4-6---
A:----4-7-4-6--------------
E:-5-------------------------

prechorus
G:---------------------------------
D:---------------------------------
A:-----5--------5--------5------
E:-5------7-5-----7-5-----7-8

bass solo (sort of)
G:-------------------------6
D:-7-----7------4-5-4---
A:- --6----6-5------------
E:--------------------------

I'm pretty sure it's right if it's wrong e-mail me and tell me how bad I am at figuring out
songs also e-mail me to find out more about the BeSharps