At The Drive-in — One Armed Scissor

На этой странице Вы можете ознакомиться с 5 версиями подбора аккордов для гитары к песне "One Armed Scissor" группы (исполнителя) "At The Drive-in".

AT THE DRIVE-IN
ONE ARMED SCISSOR

intro:
G--------------------------------------------
D--------------------------------------------
A--------------7-------------7---------------
E----0-0-0-0-0-----0-0-0-0-0-----------------

verse 1:
G---------------------------------------------
D-----------------------------7777555544442222
A---0----0----0----0----00--------------------
E---------------------------------------------X4

chorus
G---------------------------------------------
D---------------------------------------------
A-------------7--5-5-5-5-5---888888888--------
E---0-0-0-0-0--------------7----------88888888x4

bridge:
G---------------------------------------------
D----------------------7777555544442222-------
A-0-0---0-0-2-3-2-0---------------------------
E-----3-------------3-------------------------x2

verse 2:

G-------------------------------2-------------
D---------------------------0-2---2-----------
A---------------------------------------------
E-5-5---5-3-3--3-2-2---2-0-0--------3---------x7

G--------------------------------------------
D--------------------------------------------
A---------------------2222222222222222-------
E-5-5---5-3-3--3-2-2-------------------------x1

(just add in your own things like slides or whatever you feel neccessary,where neccessary)

chorus x4

verse 3:

G--------------------------------------------
D----------55555555------5555----------------
A-------------------3333------22222222-------
E-00000000-----------------------------------x6

G--------------------------------------------
D----------55555555--5--5---4--4-------------
A-------------------3--3---2--2--------------
E-00000000-----------------------------------x1

G--------------------------------------------
D----------55555555--5--5--------------------
A-------------------3--3----22222222222222222
E-00000000-----------------------------------

chorus x4

outro
G--------------------------------------------
D--------------------------------------------
A88888888--------88888888--------------------
E--------88888888--------888888888-----------

G--------------------------------------------
D--------------------------------------------
A--------------------------------------------
E---0-0-0-0-0---0----------------------------

if you have any problems let me know at:
new_york_city_cop88@hotmail.com
Artist: At The Drive In
Song : One Armed Scissor
Album : Relationship of Command
Tab by: Robin Tayor & Mike Davies

E-mail me with any comments you may have at DaBassist@flea.co.uk


INTRO
G ||--------------|-------------||
D4||--------------|-------------||
A4||------------7-|------------7||
E ||-0-0-0-0-0----|-0-0-0-0-0---||

VERSE (time change)
G ||-------|-------|-------|-------|------------|------------|------------|-----------||
D3||-------|-------|-------|-------|-7--7-7-7-7-|-5--5-5-5-5-|-4--4-4-4-4-|-2--2-2-2-2||
A4||-------|-------|-------|-------|------------|------------|------------|-----------||
E ||-5-----|-5-----|-5-----|-5-5---|------------|------------|------------|-----------|| X4

CHORUS
G ||--------------|--------------|-----------------|----------------||
D4||--------------|--------------|-----------------|----------------||
A4||------------7-|-5-5-5-5-5----|-8-8-8-8-8-8-8-8-|----------------||
E ||-0-0-0-0-0----|------------7-|-----------------|-8-8-8-8-8-8-8-8|| X4

G ||--------|--------|--------|--------|--------|--------|--------|--------||
D4||--------|--------|--------|--------|-7-7-7-7|-5-5-5-5|-4-4-4-4|-2-2-2-2||
A4||--------|--------|--------|-3-3----|--------|--------|--------|--------||
E ||-5---5--|---3--5-|-5-----5|-----5-3|--------|--------|--------|--------|| X2

VERSE #2
G ||--------|--------|--------|--------|--------|--------|--------|-------||
D4||--------|--------|--------|--------|--------|--------|--------|----7--||
A4||--------|--------|--------|--------|--------|--------|--------|5-7---7||
E ||-5---5--|------0-|--3---3-|------0-|-2---2--|-2-2-3-2|-0----0-|-------|| X2

G ||--------|--------|--------|--------|--------|--------|--------|-------||
D4||--------|-----5--|--------|--------|--------|--------|--------|----7--||
A4||--------|-7------|--------|--------|--------|--------|--------|5-7---7||
E ||-5---5--|------0-|--3---3-|------0-|-2---2--|-2-2-3-2|-0----0-|-------|| X2

G ||--------|--------|--------|--------|--------|--------|--------|-------||
D4||--------|--------|--------|--------|--------|--------|--------|----7--||
A4||--------|--------|--------|--------|--------|--------|--------|5-7---7||
E ||-5---5--|------0-|--3---3-|------0-|-2---2--|-2-2-3-2|-0----0-|-------|| X2

G ||--------|--------|--------|--------|--------|--------|--------|-------||
D4||--------|--------|--------|--------|--------|--------|--------|----7--||
A4||--------|--------|--------|--------|--------|--------|--------|5-7---7||
E ||-5-5-5-5|------0-|-3-3-3-3|--------|-2-2-2-2|-2-2-3-2|-0-0--0-|-------||

(play these bars X2)
G ||---------|------|--------|------|---------|--------|--------|-------||
D4||---------|------|--------|------|---------|--------|--------|-------||
A4||---------|------|--------|------|---------|--------|--------|-------||
E ||-5-5-5-5-|------|3-3-3-3-|------|-2-2-2-2-|2-2-3-2-|0-0-0-0-|0-0-0-0||

CHORUS
G ||--------------|--------------|--------|--------|--------|--------||
D4||--------------|--------------|--------|--------|--------|--------||
A4||------------7-|-5-5-5-5-5----|-8-8-8-8|-8-8-8-8|--------|--------||
E ||-0-0-0-0-0----|------------7-|--------|--------|-8-8-8-8|-8-8-8-8|| X4

MIDDLE
G ||--------|--------|-----------|------------|--------|----------|--------|--------||
D4||--------|--------|-----------|------------|--------|----------|--------|--------||
A4||--------|--------|-x-10-10-10|-10-10-10-10|--------|-10-10----|--------|--------||
E ||-0-0-0-0|-0-0-0-0|-----------|------------|-8-8-8-8|-------8-8|-7-7-7-7|-7-7-7-7||

CHORUS
G ||--------------|--------------|--------|--------|--------|--------||
D4||--------------|--------------|--------|--------|--------|--------||
A4||------------7-|-5-5-5-5-5----|-8-8-8-8|-8-8-8-8|--------|--------||
E ||-0-0-0-0-0----|------------7-|--------|--------|-8-8-8-8|-8-8-8-8|| X4

OUTRO
G ||--------|--------|--------|--------|
D4||--------|--------|--------|--------|
A4||-8-8-8-8|-8-8-8-8|--------|--------|
E ||--------|--------|-8-8-8-8|-8-8-8-8| X2

G ||--------------||
D4||--------------||
A4||------------7-||
E ||-0-0-0-0-0----||
Intro:
guitar1
|------0-------0-|
|88888-0-88888-0-|
|77777-0-77777-0-|
|00000-0-00000-0-|
|77777---77777---|
|00000---00000---|


Verse:
|--------------------------
|------0-----0----0----0---
|----0-----0----0----0-----
|--9-----9-----9---9----9--
|--------------------------
|--------------------------x4

--------14--|
----15------|
-14---------|
------------|
------------|
------------|

Chorus:
guitar1+2:4x
|00000-0---------|-------------------------------|
|88888-0-77777---|-------------------------------|
|77777-0-77777-2-|10101010101010105-5-5-5-5-5-5-5|
|00000-0-77777---|10101010101010105-5-5-5-5-5-5-5|
|77777-x-55555-2-|8-8-8-8-8-8-8-8-3-3-3-3-3-3-3-3|
|00000-x---------|-------------------------------|

Prelude:
guitar1:2x
|----------------|----------------|
|---0---0---0---0|---0---0---0---0|
|--0---0---0---0-|--0---0---0---0-|
|-2---2---2---2--|-2---2---2---2--|
|0-------0-------|0---------------|
|----------------|----3---2---0---|

2ndVerse:
GTR1
PM------------------------------------------------
|--------------------------------|----------------| |
|--------------------------------|----------------| |
|--------------------------------|----------------|.|
|11111111111111119-9-9-9-9-9-9-9-|7777777755555555|.|
|13131313131313131111111111111111|9999999977777777| |
|--------------------------------|----------------| |

|--------------------------------|----------------| |
|0-0-0-0-0-0-0-0-0-0-0-0-0-0-0-0-|0000000000000000| |
|0-0-0-0-0-0-0-0-0-0-0-0-0-0-0-0-|0000000000000000|.|
|11111111111111119-9-9-9-9-9-9-9-|7777777755555555|.|
|13131313131313131111111111111111|9999999977777777| |
|--------------------------------|----------------| |

guitar2:4x NH
|--12-0---0-10-0----12-0------------12-0---0-10-0------------------------|
|-------0--------12------0---12-0-7------0--------10-12---------12-13-12-|
|-------------------------------------------------------12-11-9----------|
|------------------------------------------------------------------------|
|------------------------------------------------------------------------|
|------------------------------------------------------------------------|

2ndVerse:
guitar1... delay
|---------------------------------------------7-8-7-
|----------13-----------12----------10--------7-8-7-
|---------------------------------------------------
|--x-x-x-x-----x-x-x-x-----x-x-x-x-----x-x-x-x------
|--x-x-x-x-----x-x-x-x-----x-x-x-x-----x-x-x-x------
|---------------------------------------------------
...guitar1... pm-----------------
------------------------------------------------------------------
-----------13----------12-----------10----------------------------
------------------------------------------------------------------
---x-x-x-x-----x-x-x-x-----x-x-x-x-----x-x-x-x--55555555555555555-
---x-x-x-x-----x-x-x-x-----x-x-x-x-----x-x-x-x--77777777777777777-
------------------------------------------------------------------
...guitar1:2x
|----------------|----------------|----------------|----------------| |
|1111111111111111|9-9-9-9-9-9-9-97|8-8-8-8-7-7-7-7-|5-5-588---------| |
|----------------|----------------|----------------|--------8-8-8-8-|.|
|9-9-9-9-9-9-9-9-|7-7-7-7-7-7-7-79|5-5-5-5-5-5-5-5-|2-2-252---------|.|
|----------------|----------------|----------------|--------6-6-6-6-| |
|----------------|----------------|----------------|----------------| |

Guitar2 (some weird effect)
|----------------|----------------|
|----0-------7---|----------------|
|----------7---7-|----0-------8---|
|--5---5-5-------|----------------| REPEAT 3 TIMES
|7---------------|--7---7---6---6-|
|----------------|8-------7-------|

Chorus:
guitar1+2:4x
|00000-0---------|-------------------------------|
|88888-0-77777---|-------------------------------|
|77777-0-77777-2-|10101010101010105-5-5-5-5-5-5-5|
|00000-0-77777---|10101010101010105-5-5-5-5-5-5-5|
|77777-x-55555-2-|8-8-8-8-8-8-8-8-3-3-3-3-3-3-3-3|
|00000-x---------|-------------------------------|

2ndInterlude:
guitar1:2x...
|--------------------------------------------------------------
|--12-12-12-12-12-12-12-12-10-10-10-10-10-10-10-1012-8-8-8-8--
|--------------------------------------------------------------
|--------------------------------------------------------------
|--------------------------------------------------------------
|--------------------------------------------------------------
...guitar1...
------------------------------|--------------------------------
---7-7-7-7-5-5-5-5/7-5-5-2-2--|--12-12-12-12h15-12-12-12-12----
------------------------------|--------------------------------
------------------------------|--------------------------------
------------------------------|--------------------------------
------------------------------|--------------------------------


...guitar1
-------------10----------------------10--------0-0-0-0-0-0-0-0--|
--10-10-10-10--10-10-10-1012-8-8-8-8--7-7-7-7-5-5-5^5^5^5^5^5^-|
----------------------------------------------------------------|
----------------------------------------------------------------|
----------------------------------------------------------------|
----------------------------------------------------------------|

guitar2:4x
|-------------------------------------------------------------------|
|--------0----------------0----------------0---------------0--------|
|------0----------------0----------------0---------------0----------|
|----5----------------5----------------2---------------2------------|
|--7----------------5----------------3---------------2--------------|
|-------------------------------------------------------------------|


Pre-chorus:
bend>>>>>>
|----------------------------------------------------------------
|----------------------------------------------------------------
|--121212121212-141414141414-121212121212-11111111--161616161616-
|----------------------------------------------------------------
|--101010101010-101010101010-121212121212-12121212--141414141414-
|----------------------------------------------------------------
...guitar1 bend>>>>>>>
----------------------------------------------------------------|
----------------------------------------------------------------|
--141414141414-121212121212-------------------------------------|
----------------------------------------------------------------|
--141414141414-121212121212-22222222----------------------------|
----------------------------00000000----------------------------|

Chorus:
guitar1+2:4x
|00000-0---------|-------------------------------|
|88888-0-77777---|-------------------------------|
|77777-0-77777-2-|10101010101010105-5-5-5-5-5-5-5|
|00000-0-77777---|10101010101010105-5-5-5-5-5-5-5|
|77777-x-55555-2-|8-8-8-8-8-8-8-8-3-3-3-3-3-3-3-3|
|00000-x---------|-------------------------------|

Outro:
guitar1+2...
STRUM THROUGHOUT PM-------
|0-------2-------|3-------2-------|0-------2-------|3---------------|
|0-------0-------|1-------0-------|0-------0-------|1---------------|
|0-------0-------|0-------2-------|0-------0-------|0---------------|
|2-------0-------|2-------1-------|2-------0-------|2-------11111111|
|2-------X-------|3-------2-------|2-------X-------|3-------22222222|
|0-------3-------|----------------|0-------3-------|----------------|
Intro:

guitar1
|--8-8-8-8-8---------8-8-8-8-8-------------|
|--7-7-7-7-7----7----7-7-7-7-7----0--------|
|------------------------------------------|
|--7-7-7-7-7----7----7-7-7-7-7----7--------|
|------------------------------------------|

_______________________________________________________________________


Pre-Verse:

guitar1:4x...
|-------------------------------------------------
|------0---0-----0---0-----0---0-------0---0------
|----0---0-----0---0-----0---0-------0---0--------
|--7---------7---------7---------7-7--------------
|-------------------------------------------------
|-------------------------------------------------
...guitar1 NH NH NH
----------------------------------------------------|
---------------------------------7^-----------------|
-----------------------------7----------------------|
-------------------------7--------------------------|
----------------------------------------------------|
----------------------------------------------------|

guitar2:4x...
|-------------------------------------------------
|------5---5-----5---5-----5---5-------5---5------
|--0-4---4---0-4---4---0-4---4---0-0-4---4--------
|--2---------2---------2---------2-2--------------
|-------------------------------------------------
|-------------------------------------------------
...guitar2 grad.bend>>>>>>>>>>>
----------------------------------------------------|
----5---5---5---5---5---5---5---5---5---5---5---5---|
--4---4---4---4---4---4---4---4---4---4---4---4-----|
----------------------------------------------------|
----------------------------------------------------|
----------------------------------------------------|

_______________________________________________________________________


Chorus:

guitar1+2:4x
|----------------------------------------------------------------|
|--8-8-8-8-8-----7-7-7-7-7---------------------------------------|
|--7-7-7-7-7--7--7-7-7-7-7--7--10-10-10-10-10-10--5-5-5-5-5-5----|
|----------------------------------------------------------------|
|--7-7-7-7-7--7--5-5-5-5-5--5--8--8--8--8--8--8---3-3-3-3-3-3----|
|----------------------------------------------------------------|

_______________________________________________________________________


Prelude:

guitar1:2x
|------------------------------------------------------------------|
|--------0-------0-------0-------0---------------------------------|
|------0-------0-------0-------0-------0-------0-------0-------0---|
|----7-------7-------7-------7-------0-------0-------0-------0-----|
|--7-------7-------7-------7-------7-------5-------3-------2-------|
|------------------------------------------------------------------|

guitar2:2x|NH NH NH NH NH NH
|-------------------------------------------------------------------|
|--------0------------------0-----------------0---------------------|
|------0------------------0-----------------0-------0-----0---------|
|----2------------------2-----------------2-------0-----0---2-------|
|--x------(2)-(2)(2)--x-------(2)-(2)(2)--------5-----3-------3-2-0-|
|-------------------------------------------------------------------|

_______________________________________________________________________


2ndVerse:

guitar1:2x
|-------------------------------------------------------------------|
|-------------------------------------------------------------------|
|-------------------------------------------------------------------|
|--77777777---------5555555----------44444444--------22222222-------|
|--77777777---------7777777----------55555555--------22222222-------|
|-------------------------------------------------------------------|
guitar1:2x
|-------------------------------------------------------------------|
|-------------------------------------------------------------------|
|--0----------------0----------------0---------------0--------------|
|--7----------------5----------------4---------------2--------------|
|--7----------------7----------------5---------------2--------------|
|-------------------------------------------------------------------|


guitar2:4x NH
|--12-0---0-10-0----12-0------------12-0---0-10-0------------------------|
|-------0--------12------0---12-0-7------0--------10-12---------12-13-12-|
|-------------------------------------------------------12-11-9----------|
|------------------------------------------------------------------------|
|------------------------------------------------------------------------|
|------------------------------------------------------------------------|

_______________________________________________________________________


2ndVerse:

guitar1... delay
|---------------------------------------------------
|----------13----------------------------------10/--
|----------16^---------16^---------14^--------------
|--x-x-x-x-----x-x-x-x-----x-x-x-x-----x-x-x-x------
|--x-x-x-x-----x-x-x-x-14^-x-x-x-x-12^-x-x-x-x------
|---------------------------------------------------
...guitar1...
----------------------------------------------------
-----------------------13----------------------10/--
-----------16^---------16^---------14^--------------
---x-x-x-x-----x-x-x-x-----x-x-x-x-----x-x-x-x------
---x-x-x-x-14^-x-x-x-x-----x-x-x-x-12^-x-x-x-x------
----------------------------------------------------
...guitar1:2x
-----------------------------------------------------------|
-----------------------------------------------------------|
--171717171717---161616161616--141414141414--121212121212--|
-----------------------------------------------------------|
--151515151515---141414141414--121212121212--101010101010--|
-----------------------------------------------------------|


guitar2:4x NH/// NH/// NH/// NH///
|----------------------------------------------------------|
|----------(5)-----------(5)----------(5)----------(5)-----|
|-17171717-(5)--16161616-(5)-14141414-(5)-12121212-(5)-----|
|----------(5)-----------(5)----------(5)----------(5)-----|
|-15151515------14141414-----12121212-----10101010---------|
|----------------------------------------------------------|

_______________________________________________________________________


Chorus:

guitar1+2:4x
|----------------------------------------------------------------|
|--8-8-8-8-8-----7-7-7-7-7---------------------------------------|
|--7-7-7-7-7--7--7-7-7-7-7--7--10-10-10-10-10-10--5-5-5-5-5-5----|
|----------------------------------------------------------------|
|--7-7-7-7-7--7--5-5-5-5-5--5--8--8--8--8--8--8---3-3-3-3-3-3----|
|----------------------------------------------------------------|

_______________________________________________________________________


2ndInterlude:

guitar1:2x...
|--------------------------------------------------------------
|--12-12-12-12-12-12-12-12-10-10-10-10-10-10-10-1012-8-8-8-8--
|--------------------------------------------------------------
|--------------------------------------------------------------
|--------------------------------------------------------------
|--------------------------------------------------------------
...guitar1...
------------------------------|--------------------------------
---7-7-7-7-5-5-5-5/7-5-5-2-2--|--12-12-12-12h15-12-12-12-12----
------------------------------|--------------------------------
------------------------------|--------------------------------
------------------------------|--------------------------------
------------------------------|--------------------------------
...guitar1
-------------10----------------------10--------0-0-0-0-0-0-0-0--|
--10-10-10-10--10-10-10-1012-8-8-8-8--7-7-7-7-5-5-5^5^5^5^5^5^-|
----------------------------------------------------------------|
----------------------------------------------------------------|
----------------------------------------------------------------|
----------------------------------------------------------------|

guitar2:4x
|-------------------------------------------------------------------|
|--------0----------------0----------------0---------------0--------|
|------0----------------0----------------0---------------0----------|
|----5----------------5----------------2---------------2------------|
|--7----------------5----------------3---------------2--------------|
|-------------------------------------------------------------------|

_______________________________________________________________________


Pre-chorus:

guitar1... bend>>>>>>
|----------------------------------------------------------------
|----------------------------------------------------------------
|--121212121212-141414141414-121212121212-11111111--161616161616-
|----------------------------------------------------------------
|--101010101010-101010101010-121212121212-12121212--141414141414-
|----------------------------------------------------------------
...guitar1 bend>>>>>>>
----------------------------------------------------------------|
----------------------------------------------------------------|
--141414141414-121212121212-------------------------------------|
----------------------------------------------------------------|
--141414141414-121212121212-22222222----------------------------|
----------------------------00000000----------------------------|


guitar2... whammypedal
|----------------------------------------------------------------
|----------------------------------------------------------------
|--121212121212-141414141414-12-----------11--------161616161616-
|----------------------------------------------------------------
|--101010101010-101010101010-12-----------12--------141414141414-
|----------------------------------------------------------------
...guitar2
---------------------15-15-15-15-15-15--------------------------|
--8--8--8--8--8--8---19^19^19^19^19^19^-------------------------|
--11^11^11^11^11^11^--------------------------------------------|
----------------------------------------------------------------|
----------------------------------------22222222----------------|
----------------------------------------00000000----------------|

_______________________________________________________________________


Chorus:

guitar1+2:4x
|----------------------------------------------------------------|
|--8-8-8-8-8-----7-7-7-7-7---------------------------------------|
|--7-7-7-7-7--7--7-7-7-7-7--7--10-10-10-10-10-10--5-5-5-5-5-5----|
|----------------------------------------------------------------|
|--7-7-7-7-7--7--5-5-5-5-5--5--8--8--8--8--8--8---3-3-3-3-3-3----|
|----------------------------------------------------------------|

_______________________________________________________________________


Outro:

guitar1+2...
|-------------------------------------------------------------------
|-------------------------------------------------------------------
|--10-10-10-10-10-10--5-5-5-5-5-5---10-10-10-10-10-10--5-5-5-5-5-5--
|-------------------------------------------------------------------
|--8--8--8--8--8--8---3-3-3-3-3-3---8--8--8--8--8--8---3-3-3-3-3-3--
|-------------------------------------------------------------------
...guitar1+2
-------------------------------------------------------------------|
---8-8-8-8-8-------------------------------------------------------|
---7-7-7-7-7--7----------------------------------------------------|
-------------------------------------------------------------------|
---7-7-7-7-7--7----------------------------------------------------|
-------------------------------------------------------------------|



=^_^=
feel free to talk to me 'bout it ~~>roze_angel@hotmail.com
send all hate mail and/or comments/compliments to ~~>roze_angel@hotmail.com

-sleepwalker-
I've had this tab up on my site for ages now, and noticed some1 posted a whole
load of At the Drive-in tabs, so I thought I'd post my version of one armed
scissor.
here you go

------------0-------------0---------------------------------------------------
-8-8-8-8-8--0--8-8-8-8-8--0---------------------------------------------------
-7-7-7-7-7--0--7-7-7-7-7--0---------------------------------------------------
-0-0-0-0-0--0--0-0-0-0-0--0---------------------------------------------------
-7-7-7-7-7-----7-7-7-7-7------------------------------------------------------
-0-0-0-0-0-----0-0-0-0-0------------------------------------------------------


------------------------------------------------------------14----------------
--------0-------------0--------0-------------0-----------15-------------------
------0-------------0--------0-------------0----------14----------------------
-9-10-----9-10-9-10-----9-10-----9-10-9-10-----9-10---------------------------
------------------------------------------------------------------------------
------------------------------------------------------------------------------
(repeat)

------------0-----------------------------------------------------------------
-8-8-8-8-8--0--7-7-7-7-7------10-10-10-10-10-10-10-10-5-5-5-5-5-5-5-5---------
-7-7-7-7-7--0--7-7-7-7-7--2---10-10-10-10-10-10-10-10-5-5-5-5-5-5-5-5---------
-0-0-0-0-0--0--7-7-7-7-7--x---8--8--8--8--8--8--8--8--3-3-3-3-3-3-3-3---------
-7-7-7-7-7-----5-5-5-5-5--2---------------------------------------------------
-0-0-0-0-0--------------------------------------------------------------------


------------------------------------------------------------------------------
-------0-----0-------0-----0-------0-------0-------0-------0------------------
-----0-----0-------0-----0-------0-------0-------0-------0--------------------
---2-----2-------2-----2-------2-------2-------2-------2----------------------
-0-------------0-------------0------------------------------------------------
-------------------------------------3-------2-------0------------------------


------------------------------------------------------------------------------
------------------------------------------------------------------------------
------------------------------------------------------------------------------
-10-10-10-10-10-10-10-10-9--9--9--9--9--9--9--9--7-7-7-7-7-7-7-7-5-5-5-5-5-5--
-12-12-12-12-12-12-12-12-12-12-12-12-12-12-12-12-9-9-9-9-9-9-9-9-7-7-7-7-7-7--
------------------------------------------------------------------------------
PM all......................................................................

------------------------------------------------------------------------------
------0--0--0--0--0--0--0--0--0--0--0--0--0--0--0--0--0-0-0-0-0-0-0-0-0-0-0---
------0--0--0--0--0--0--0--0--0--0--0--0--0--0--0--0--0-0-0-0-0-0-0-0-0-0-0---
-5-5--10-10-10-10-10-10-10-10-9--9--9--9--9--9--9--9--7-7-7-7-7-7-7-7-5-5-5---
-7-7--12-12-12-12-12-12-12-12-10-10-10-10-10-10-10-10-9-9-9-9-9-9-9-9-7-7-7---
------------------------------------------------------------------------------
............................................................................

------------------------------------------------------------------------------
-0-0-0-0-0--------------------------------------------------------------------
-0-0-0-0-0--------------------------------------------------------------------
-5-5-5-5-5--------------------------------------------------------------------
-7-7-7-7-7--------------------------------------------------------------------
------------------------------------------------------------------------------
.........

------------------------------------------------------------------------------
------------------------------------------------------------------------------
--------------13-------------12---------10------------------------------------
------------------------------------------------------------------------------
--10-10-10-10----9--9--9--9-----7-7-7-7----5-5-5-5-5-5-5-5-5-5-5-5-5-5-5-5----
--12-12-12-12----10-10-10-10----9-9-9-9----7-7-7-7-7-7-7-7-7-7-7-7-7-7-7-7----
PM.......................................................................

------------0-----------------------------------------------------------------
-8-8-8-8-8--0--7-7-7-7-7------------------------------------------------------
-7-7-7-7-7--0--7-7-7-7-7--2--10-10-10-10-10-10-10-10-5-5-5-5-5-5-5-5----------
-0-0-0-0-0--0--7-7-7-7-7--x--10-10-10-10-10-10-10-10-5-5-5-5-5-5-5-5----------
-7-7-7-7-7-----5-5-5-5-5--2--8--8--8--8--8--8--8--8--3-3-3-3-3-3-3-3----------
-0-0-0-0-0--------------------------------------------------------------------


------------------------------------------------------------------------------
-12-12-12-12-12-12-12-12-10-10-10-10-10-10-10-10-12-8-8-8-8-7-7-7-7-5-5-5-8---
-------------------------7--7--7--7--7--7--7--7--9----------------------------
-9--9--9--9--9--9--9--9-----------------------------5-5-5-5-5-5-5-5-2-2-2-5---
------------------------------------------------------------------------------
------------------------------------------------------------------------------


------------------------------------------------------------------------------
-8----------------------------------------------------------------------------
---8-8-8-8--------------------------------------------------------------------
-2----------------------------------------------------------------------------
---6-6-6-6--------------------------------------------------------------------
------------------------------------------------------------------------------


-0---2------3--2----0---2------3----------------------------------------------
-0---0------1--0----0---0------1----------------------------------------------
-0---0------0--2----0---0------0----------------------------------------------
-2---0------2--1----2---0------2----------------------------------------------
-2---x------3--2----2---x------3----------------------------------------------
-0---3--------------0---3-----------------------------------------------------
PM..............................

------------0-----------------------------------------------------------------
-8-8-8-8-8--0--7-7-7-7-7------------------------------------------------------
-7-7-7-7-7--0--7-7-7-7-7--2---10-10-10-10-10-10-10-10-5-5-5-5-5-5-5-5---------
-0-0-0-0-0--0--7-7-7-7-7--x---10-10-10-10-10-10-10-10-5-5-5-5-5-5-5-5---------
-7-7-7-7-7-----5-5-5-5-5--2---8--8--8--8--8--8--8--8--3-3-3-3-3-3-3-3---------
-0-0-0-0-0--------------------------------------------------------------------