At The Drive-in — Pattern Against User

На этой странице Вы можете ознакомиться с 2 версиями подбора аккордов для гитары к песне "Pattern Against User" группы (исполнителя) "At The Drive-in".

Artist: AT THE DRIVE-IN 
Title: SLEEPWALK CAPSULES
Album: RELATIONSHIP OF COMMAND
Transcribed by: SeBaStIaN SqUiReS
Email: THE5EBSTER@HOTMAIL.COM

THIS IS A GREAT SONG BY AT THE DRIVE-IN AND I LOVE IT, SO I HAD TO TAB IT!


MAIN CHORUS
--------------------------------
--------------------------------
-99-9-77-7-6666664446666/7------
-99-9-77-7----------------------
--------------------------------
--------------------------------

RIFF 1
------------------------------------------------
------------------------------------------------
----------------------------------------55555555
-10-10-10-10-10-9-7-10-9-7-10/11-11-11--55555555
----------------------------------------33333333
----------------------------------------33333333


THIS BIT IS PLAYED WITH A LOT OF EFFECTS
-------------------------
-------------------------REPEAT THIS SEVERAL TIMES
-9~--7~------------------
-9~--7~----7-------------THIS RIFF DIFFERS SLIGHTY EACH TIME IT IS PLAYED
-7~--5~--5---8-6~--------AND THERE IS ALOT OF WAH, ECHO, FLANGE AND OTHER
FX'S USED
-------------------------


THEN PLAY THIS AFTER THE LAST TIME
--------------------
--------------------
--------------------
--------------------
--------------------
-7-6-4-7-3-7-6-4-10-


NEAR END
----15------15-----------------------
------15------15---------------------
-99------77------6666664446666/7-----
-99------77--------------------------
-------------------------------------
-------------------------------------


AT END
---------------------------------------------
---------------------------------------------
-------------------------------------55555555
-10-10-10-10-10/9-11-11-11-11-11-11--55555555
-------------------------------------33333333
-------------------------------------33333333


HOPE YOU LIKE THIS TAB, I DID IT AT ELEVEN O'CLOCK AT NIGHT AND IT TOOK ME
ABOUT AN HOUR,
HOPE IT SOUNDS NEAR ENOUGH LIKE THE ORIGINAL.

LYRICS

the proposition
handcuffed to the park bench
hypodermic people poking fun at the living
please lift the weight out of this
it takes the weight out of living
are we just infants that are ripe for the training
the opposition
can't feel the tentacle reach
suction cup the numb arms of the elderly
please lift the weight out of this
it takes the weight out of living
let these walkers trip on endless proof
pattern against user
dilated
bastard waited for nothing
circus carny guarding
the gates of heavan
pact stuck in limbo abduction
wormed our way through distant earth
this intuition
limps with the cane of suspicion
folding space in the crease of this page
it takes the weight out of this
it takes the weight out of--
trickling the ticking of this grandfather clock
the opposition
can't feel the tentacle reach
suction cup the numb arms of the elderly
chorus
and if this clock keeps ticking away
will time be hesitated
of all the minutes that were taken away
will your watch be waiting
sand falls through
time portals
these landfills, immortal
and if the clock keeps beating down
let the branded time keep playing
of all the minutes that were taken away
will your watch be waiting.


AT THE DRIVE-IN RULE!
Band:    At the Drive-in
Song: Pattern against user
Album: Relationship Of Command
Tabbed By: Jeremy Battreal punk_ass_biotch16@hotmail.com
Tuning: Standard

h: Hammer-on
p: Pull-off

PLEASE SEND FEEDBACK, SUGGESTIONS, CORRECTIONS TO MY EMAIL ADDRESS!
HOPE SOMEONE OUT THERE CAN USE THIS!


Intro (2X) / Chorus (4X):

Guitar 1:
e -0--0-0--0--0-0--0-0--0--0-0--0--0-0--0-0--0--0-0--0--0-0--0-0-----
B -0--0-0--0--0-0--0-0--0--0-0--0--0-0--0-0--0--0-0--0--0-0--0-0-----
G -2--2-2--2--2-2--2-2--2--2-2--2--2-2--2-2--2--2-2--2--2-2--2-2-----
D -2--2-2--2--2-2--2-2--0--0-0--0--0-0--0-0--4--4-4--4--4-4--4-4-----
A -0--0-0--0--0-0--0-0--2--2-2--2--2-2--2-2--------------------------
E -------------------------------------------------------------------

Guitar 1:
e -0--0-0--0--0-0--0-0-----------------------------------------------
B -0--0-0--0--0-0--0-0-----------------------------------------------
G -2--2-2--2--2-2--2-2-----------------------------------------------
D -5--5-5--5--5-5--5-5-----------------------------------------------
A -------------------------------------------------------------------
E -------------------------------------------------------------------

Guitar 2:
e ---------7---------3--2--0----3--2-0--2-----------(repeat)---------
B -0--0---------3----------------------------0--0--------------------
G -------------------------------------------------------------------
D -------------------------------------------------------------------
A -------------------------------------------------------------------
E -------------------------------------------------------------------


Verse (4X):

Guitar 1:
p.m.********************** p.m.**** *******
e ----------------------------0-0---0-0------------------------0-0-0-
B -3-3-3-3-3-3-3-3------------1-1p0-0-0-3-3-3-3-1p0------------0-0-0-
G -2-2-2-2-2-2-2-2------------0-0---0-0-2-2-2-2-0--------------0-0-0-
D -0-0-0-0-0-0-0-0-2-2-2-2-2--2---------0-0-0-0-----2-2-2-2----------
A -----------------3-3-3-3-3--3---------------------3-3-3-3----------
E -------------------------------------------------------------------

Guitar 2:
e ----10-----12------------------------10----12----------------------
B -----------------13-----12--10---12--------------13----12----10----
G -------------------------------------------------------------------
D -------------------------------------------------------------------
A -------------------------------------------------------------------
E -------------------------------------------------------------------

Bass-interlude:

Bridge:

Guitar 1: (mostly palm muted...)(6X)
harm.
e -12----------------------------------------------------------------
B ---12-----5--5h7-----5-----7---------------------------------------
G --------5-------6------6-----6---6---------------------------------
D ------7----7-----7-------7-----7---7-------------------------------
A -------------------------------------------------------------------
E -------------------------------------------------------------------

Guitar 2: (First part non-muted:) (4X)
e ----------------------5-------4------------------------------------
B -----5----5--5h7---5----5-------5-----7-5--------------------------
G --6----6--------6----------6-------6------6h7-------6--6-----------
D ----------------------------------------------------7--7-----------
A -------------------------------------------------------------------
E -------------------------------------------------------------------

(then palm-muted:) (2X)
e -----------------4----------------------------------4--------------
B -----5-----5--7------5---5---5---5------5-----5--7-----------------
G --6-----6----------7---6---6---4---6-6-----6-----------6-7-6-------
D -----------------------------------------------------------7-------
A -------------------------------------------------------------------
E -------------------------------------------------------------------


PATTERN AGAINST USER LYRICS:
----------------------------

INTRO:

VERSE1: (starts immediately)
The proposition
Handcuffed to the park bench
Hypodermic people poking
Fun at the living
Please lift the weight out of this
It takes the weight out of living
Are we just infants
That are ripe for the training
The opposition
Can't feel the tentacle reach
Suction cup the numb arms
Of the elderly
Please lift the weight out of this
It takes the weight out of living
Let these walkers trip on
Endless proof

CHORUS:
Pattern against user - dialated
Bastard waiting for nothing
Circus carny guarding
The gates of heaven
Pact stuck in the limbo abduction
Wormed our way through
Distant earth
Wormed our way through
Distant earth

VERSE2: (1X without singing)
This intuition
Limps with the cane of suspicion
Folding space in the crease of this page
It takes the weight out of this
It takes the weight out of-
Trickling the ticking of this
Grandfather clock
The opposition
Can't feel the tentacle reach
Suction cup of the numb arms of
The elderly

CHORUS:
Pattern against user - dialated
Bastard waiting for nothing
Circus carny guarding
The gates of heaven
Pact stuck in the limbo abduction
Wormed our way through
Distant earth
Wormed our way through
Distant earth

BASS INTERLUDE:

BRIDGE:
And if this clock keeps
Ticking away
Will time be hesitated
Of all the minutes that were
Taken away
Will your watch be waiting
Sand falls through
Time portals
These landfills - immortal
And if this clock keeps (Palm mute part)
Beating down
Let the branded time
Keep playing
Of all the minutes that
Were taken away
Will your watch be waiting

CHORUS:
Pattern against user - dialated
Bastard waiting for nothing
Circus carny guarding
The gates of heaven
Pact stuck in the limbo abduction
Wormed our way through
Distant earth
Wormed our way through
Distant earth

(OUTRO: Chorus soft)
Wormed our way through
Distant earth
Wormed our way through
Distant earth...hey