At The Gates — Blinded By Fear

На этой странице Вы можете ознакомиться с 3 версиями подбора аккордов для гитары к песне "Blinded By Fear" группы (исполнителя) "At The Gates".

Blinded By Fear - At The Gate |
------------------------------

TAB: by Big M
e-mail: Big_Mx@gmx.de

Tune down every string 2.5 steps to B !!!
...sounds good in E, too...

Intro
D|-----------------|
A|-----------------|
E|-3-2-------------|
B|---------3-2-----|

Main Riff
D|----------------------------------------|
A|---------------------7------------------|
E|-10------10-9------9--------9-10--------|
B|----0000------0000-----8888------777777-|

Fig.1
D|-----------------------------------------|
A|-------------------1---------------------|
E|-------------2--------------------2---1--|
B|-0-0-0-0-023---023----0-0-0-0-023---0----|

Fig.2
D|---------------------------------------------------------------------|
A|------------9---8------------9----------------9---8------------9-----|
E|----------7---7------------7---7-6----------7---7------------7---6-9-|
B|-00000000---------00000000---------00000000---------00000000---------|

Fig.3
D|---------------------------|
A|---------------------------|
E|----------3-2--------------|
B|-00000000---------3-2------|

Fig.4
D|-----------------------------------------------------------------------|
A|-----------------------------------------------------------------------|
E|----------------5---4-----------------------------3---2----------------|
B|-3--------5-6----------------------1--------3-4------------------------|

Fig.5 (solo)
D|----------------------------------------|----------------------------------------|
A|---------------------7------------------|---------------------7------------------|
E|-10------10-9------9--------9-10--------|-10------10-9------9--------9-10--------|
B|----0000------0000-----8888------777777-|----0000------0000-----8888------777777-|

D|--------------------------------------------------------------------------------|
A|--------------------------------------------------------------------------------|
E|------------------3333333333333333---------------------------3-2----------------|
B|-0000000000000000------------------5555555555555555-33333333----------3-2-------|

Fig.6
D|--------------------------------------------------------------------------------|
A|------------9---8------------9----------------9---8-----------------------------|
E|----------7---7------------7---7-6----------7---7------------3-2----------------|
B|-00000000---------00000000---------00000000---------00000000----------3-2-------|

----------------
Song structure: |
----------------
Intro 1x
Main Riff 4x
Fig.1 2x
Main Riff 2x
Fig.1 2x
Fig.2 1x
Main Riff 4x
Fig.1 2x
Fig.2 1x
Fig.3 1x
Fig.4 2x
Fig.5 1x
Main Riff 4x
Fig.1 2x
Fig.2 1x
Fig.6 1x
At The Gates - Blinded by Fear.
Tabbed by Danny D. tossa_rush@hotmail.com.

tune every string down 2 and a half steps down.

* - palm mute
~ - vibrato
h - hammer on
p - pull off
b - bend

intro
[|-------------|]
[|-------------|]
[|-------------|]
[|-5-4---------|]
[|-3-2---5-4---|]
[|-------3-2---|]

1st riff (x4)
[|--------------------------------------|]
[|--------------------------------------|]
[|--------------------------------------|]
[|--------------------------------------|]
[|-10-----10-9-----9-12-----9-10--------|]
[|---0000-----0000-----8888------777777-|]
**** **** **** ******

2nd riff (x2)
[|---------------------------------------|]
[|---------------------------------------|]
[|-----------------3---------------------|]
[|-2-2-2-2---------1---2-2-2-2---------3-|]
[|-2-2-2-2-------------2-2-2-2---------1-|]
[|-0-0-0-0-0h2h3-0-----0-0-0-0-0h2h3-0---|]
* * * * * * * *

then play 1st riff (x2)
then play 2nd riff (x2)

3rd riff (x2)
[|----------------------------------------------|]
[|----------------------------------------------|]
[|----------------------------------------------|]
[|---------------9---8---------------9----------|]
[|----------7h10---7------------7h10---6-9------|]
[|-00000000------------00000000-----------------|]

then play 1st riff (x4)
then play 2nd riff (x2)
then play 3rd riff (x2)

Fill
[|-------------------|]
[|-------------------|]
[|-------------------|]
[|----------5-4------|]
[|----------3-2--5-4-|]
[|-00000000------3-2-|]
........

slow heavy riff before solo (x2)
one does the clean part and the other does the heavy backing.
|---------------------------------------------------|
|---------------------------------------------------|
|-----------7---6---------------------5---4---------|
|-5----7-8--7---6-----------3----5-6--5---4---------|
|-5----7-8--5---4-----------3----5-6--3---2---------|
|-3----5-6------------------1----3-4----------------|
| |
|---------------------------------------------------|
|-----3----3--------2---2-------1----1--------0---0-|
|---3----3----3---2---2---2---1----1----1---0---0---|
|-5----5----5---5---5---5---3----3----3---3---3-----|
|---------------------------------------------------|
|---------------------------------------------------|

solo
the solo is played over the 1st riff
[|---------------------------------------------|]
[|-12~--13p12h13--12--10--12b--12--8--7--------|]gtr1
[|---------------------------------------------|]
[|---------------------------------------------|]
[|---------------------------------------------|]
[|---------------------------------------------|]
| |
[|---------------------------------------------|]
[|--8~--10p8h10----8---7---8b---8--5--4--------|]gtr2
[|---------------------------------------------|]
[|---------------------------------------------|]
[|---------------------------------------------|]
[|---------------------------------------------|]

fast part of solo (x3)
[|--------------------------------|]
[|--12-10p0-10-8p0-8-7p0-7-5p0-5--|]gtr1
[|--------------------------------|]
[|--------------------------------|]
[|--------------------------------|]
[|--------------------------------|]
| |
[|--------------------------------|]
[|---8--7p0--7-5p0-5-3p0-3-5p0-5--|]gtr2
[|--------------------------------|]
[|--------------------------------|]
[|--------------------------------|]
[|--------------------------------|]

then play 1st riff (x4)
then play 2nd riff (x2)
then play 3rd riff (x1.75)
then play fill (x1)

thanx c.v.

:: Ultimate Guitar Archive ::
http://www.ultimate-guitar.com
AT THE GATES - BLINDED BY FEAR



. - palm mute / - slide up to
- slide down to ~ - vibrato
h - hammer on b - bend
p - pull off Suffixes for bend
ph - pinch harmonic f - full bend h - half bend
* - see comment r - release t - tap bend
X - percussion mute ~ - vibrato bend
@ - slight palm mute # - ghost note, sustained note
d - downstroke
u - upstroke

TUNING: B(everystring down 2.5 steps)


Opening Riff
|-------------|
|-------------|
|-------------|
|-5-4---------|
|-3-2---5-4---|
|-------3-2---|

Riff A
|--------------------------------------|
|--------------------------------------|
|--------------------------------------|
|--------------------------------------|
|-10-----10-9-----9-12-----9-10--------|
|---0000-----0000-----8888------777777-|

Play Riff A a total of four times

Riff B
|----------------------------------------------|
|--#-#-#-#-----------------#-#-#-#-------------|
|-udududud----------------udududud-------------|
|-2-2-2-2--------------1--2-2-2-2-------2---1--|
|-2-2-2-2-------2---------2-2-2-2-------2-2-1--|
|-00000000-0h2h3--0h2h3---00000000-0h2h3--0----|
........ ........ .

Play Riff B a total of two times
Play Riff A twice
Play Riff B twice

Riff C (*10* is 10 not 1 and 0)
|--------------------------------------------------------
|--------------------------------------------------------
|-------------------------------------------------------- Guitar I
|----------------9--------8-----------------9--------8---
|----------7*10*7---7*10*7------------7*10*7---7*10*7----
|-00000000-----------------00000000----------------------
| ........ ........
|
|--------------------------------------------------------
|--------------------------------------------------------
|-------------------------------------------------------- Guitar 2
|----------------9--------8-----------------9------------
|----------7*10*7---7*10*7------------7*10*7---7*10*7-6--
|-00000000-----------------00000000----------------------
........ ........

continuation of Riff C (end of Riff C)
-------------------------------------------------------|
-------------------------------------------------------|
-------------------------------------------------------| Guitar I
----------------9--------8-----------------9-----------| &
----------7*10*7---7*10*7------------7*10*7---6-9------| Guitar 2
-00000000------------------00000000--------------------|

Play Riff A four times
Play Riff B 2 times
Play Riff C

Fill
|-------------------|
|-------------------|
|-------------------|
|----------5-4------|
|----------3-2--5-4-|
|-00000000------3-2-|
........

Acoustic Part(repeat twice)
|-----------------------------------------------------------------|
|-----------------------------------------------------------------|
|-------------7---6----------------------------5---4--------------| Guitar I
|-5-----7-8---7---6----------------3-----5-6---5---4--------------|
|-5-----7-8---5---4----------------3-----5-6---3---2--------------|
|-3-----5-6------------------------1-----3-4----------------------|
|
|-----------------------------------------------------------------|
|-----3-----3---------2-----2----------1-----1---------0-----0----|
|---3-----3-----3---2-----2-----2----1-----1-----1---0-----0------| Guitar 2
(clean)
|-5-----5-----5---5-----5-----5----3-----3-----3---3-----3--------|
|-----------------------------------------------------------------|
|-----------------------------------------------------------------|

The solo is being played over Riff A
Solo
|---------------------------------------------------|
|-12~---131213--12-10--12bh~-12-------8~-------8-7-|
|---------------------------------------------------| Guitar 1
|---------------------------------------------------|
|---------------------------------------------------|
|---------------------------------------------------|
|
|---------------------------------------------------|
|---------------------------------------------------|
|-----------------------------------------------7-6-| Guitar 2
|-------------------------------------5~-----------|
|---------------------------------------------------|
|---------------------------------------------------|

Solo continued(Riff D is played under this)
Repeat 3 times
|-------------------------------||-------|
|--12-10p0-10-8p0-8-7p0-7-5p0-5-||-12~---|
|*-----------------------------*||-------| Guitar 1
|*-----------------------------*||-------|
|-------------------------------||-------|
|-------------------------------||-------|
| repeat 3 times
|-------------------------------||-------|
|---8--7p0--7-5p0-5-3p0-3-5p0-5-||-------|
|*-----------------------------*||-12~---| Guitar 2
|*-----------------------------*||-------|
|-------------------------------||-------|
|-------------------------------||-------|

Riff D
|--------------------------------------------------------------------|
|--------------------------------------------------------------------|
|--------------------------------------------------------------------|
|----------------------------------------------------------5-4-------|
|-2222222222222222-----------------------------------------3-2--5-4--|
|-00000000000000008888888888888888555555555555555533333333------3-2--|
........................................................

Play Riff A 4 times
Play Riff B 2 times
Play Riff C 1.75 times
Play Fill