At The Gates — Slaughter Of Souls

drop D tuning
just tune to 7 open then 5 open

h=hammer on p=pull off

main riff
---------------------------------------------------|
---------------------------------------------------|
---------------------------------------------------|
---------------------------------------------------|
---5--3h5-5--8--7--000111---5--3h5-5--8--7--0h1p04-|
000-00---0-00-00-00------000-00---0-00-00-00-------|

repeat 2 times then back to the first riff
--------------------------------------------------|
--------------------------------------------------|
---------------------------2----------------------|
---7p55---5p33---3p22---3h5-----------------------|
--------------------------------------------------|
000----000----000----000--------------------------|