At The Gates — Slaughter Of The Soul

Slaughter Of The Soul - At The Gates |
-------------------------------------

TAB: by Big M
e-mail: Big_Mx@gmx.de

Tune down every string 2.5 steps to B !!!
...sounds good in E, too...

Intro (wait for Guitar !!)
D|-----------------|-----------------|----|
A|-----------------|-----------------|----|
E|-----------------|-----------------|-GO-|
B|-0-----0-----0---|---0-----0-------|----|

Main Riff
D|-----------------|------------------|-----------------|
A|-----------------|------------------|-----------------|
E|-------7-----5-7-|---7-----10-----9-|-----2-222-3-----|
B|-0-000---0-0-----|-0---0-0----0-0---|-0-0---------3-2-|

D|-----------------|------------------|-----------------|
A|-----------------|------------------|-----------------|
E|-------7-----5-7-|---7-----10-----9-|-------5---6-----|
B|-0-000---0-0-----|-0---0-0----0-0---|-0-0-7---7-------|

Verse
D|------------------|------------------|-------------------|-----------------|
A|------------------|---9--------------|-------------------|-----------------|
E|-------7-----7----|-----7---------10-|-----9-10---7------|-------3-----2/3-|
B|-0-000---000---00-|-0-----7-8-888----|-888------8---8-88-|-5-555---555-----|

D|-----------------|-------------------|
A|-----------------|-------------------|
E|---------------2-|-------------------|
B|-5-5-555-3-333---|-3-331-111-1-1-1-1-|

Pre-Chorus
D|--------------|-------------|--------------|---------------|
A|--------------|-------------|--------------|---------------|
E|-------10---9-|-------9---7-|-------10---9-|--------7-9-10-|
B|-0-000----0---|-8-888---8---|-0-000----0---|-7-8-10--------|

D|--------------|-------------|--------------|-------------|
A|--------------|-------------|--------------|-------------|
E|-------10---9-|-------9---7-|-------10---9-|-------6-----|
B|-0-000----0---|-8-888---8---|-0-000----0---|-7-----------|

Chorus
D|-------------|-------------|-------------|-------------|-------------|-------------|
A|-------------|-------------|-------------|-------------|-------------|-------------|
E|-7-----------|-3-----------|-7-----------|-------------|-7-----------|-3-----------|
B|-------------|-------------|-------------|-3-----5-----|-------------|-------------|

1st Ending 2nd Ending
D|-------------|-------------| D|-------------|-------------|
A|-------------|-------------| A|-------------|-------------|
E|-7-----6-7-6-|-------------| E|-------------|---5---6-----|
B|-------------|-7-----------| B|-5-----7-----|-7---7-------|

Interlude
D|-----------------|-----------------|-----------------|
A|-----------------|-----------------|-----------------|
E|-------7-----5-7-|---7-------------|-----------------|
B|-0-000---0-0-----|-0---0-0-3---3---|-6-7-6-----------|

D|-----------------|-----------------|-----------------|
A|-----------------|-----------------|-----------------|
E|-------7-----5-7-|---7---------2---|-1---0-----------|
B|-0-000---0-0-----|-0---0-0-0-------|-----------------|

D|-----------------|-----------------|-----------------|
A|-----------------|-----------------|-----------------|
E|-------7-----5-7-|---7-------------|-----------------|
B|-0-000---0-0-----|-0---0-0-3---3---|-6-7-6-----------|

D|-----------------|-----------------|-----------------|
A|-----------------|-----------------|-----------------|
E|-------7-----5-7-|---7-------------|---------5---6---|
B|-0-000---0-0-----|-0---0-0-3---5---|-6---7-----------|

Solo
D|-----------------|-----------------|-----------------|
A|-----------------|-----------------|-----------------|
E|-----------------|-----------------|-----------------|
B|-0---0-----------|---------3---3---|-6-7-6-----------|

D|-----------------|-----------------|-----------------|
A|-----------------|-----------------|-----------------|
E|-----------------|-------------2---|-1---0-----------|
B|-0---0-----------|---------0-------|-----------------|

D|-----------------|-----------------|-----------------|
A|-----------------|-----------------|-----------------|
E|-----------------|-----------------|-----------------|
B|-0---0-----------|---------3---3---|-6-7-6-----------|

D|-----------------|-----------------|-----------------|
A|-----------------|-----------------|-----------------|
E|-----------------|-----------------|---------5---6---|
B|-0---0-----------|---------3---5---|-6---7-----------|

D|-----------------|-----------------|-----------------|-----------------|
A|-----------------|-----------------|-----------------|-----------------|
E|-----------------|-----------------|-----------------|-----------------|
B|-0---0-0-0-0-0---|-0-0-0-0-8---8-8-|-8-8-8---8-8-8-8-|-0---0-0-0-0-0---|

D|-----------------|-----------------|-----------------|-----------------|
A|-----------------|-----------------|-----------------|-----------------|
E|-----------------|-------5---6-----|-----------------|-----------------|
B|-0-0-0-0-7---7-7-|-7-7-7---7-------|-0---0-0-0-0-0---|-0-0-0-0-8---8-8-|

D|-----------------|-----------------|-----------------|-----------------|
A|-----------------|-----------------|-----------------|-----------------|
E|-----------------|-----------------|-----------------|-------5---5/----|
B|-8-8-8---8-8-8-8-|-0---0-0-0-0-0---|-0-0-0-0-7---7-7-|-7-7-7---7-------|

D|-----------------|-----------------|-----------------|
A|-----------------|-----------------|-----------------|
E|-----------------|-----------------|-----------------|
B|-0---0-----------|---------3---3---|-6-7-6-----------|

D|-----------------|-----------------|-----------------|
A|-----------------|-----------------|-----------------|
E|-----------------|-------------2---|-1---0-----------|
B|-0---0-----------|---------0-------|-----------------|

D|-----------------|-----------------|-----------------|
A|-----------------|-----------------|-----------------|
E|-----------------|-----------------|-----------------|
B|-0---0-----------|---------3---3---|-6-7-6-----------|

D|-----------------|-----------------|-----------------|
A|-----------------|-----------------|-----------------|
E|-----------------|-----------------|---------5---6---|
B|-0---0-----------|---------3---5---|-6---7-----------|

End
D|-----------------|-----------------|-----------------|
A|-----------------|-----------------|-----------------|
E|-------7-----5-7-|---7-------------|-----------------|
B|-0-000---0-0-----|-0---0-0-3---3---|-6-7-6-----------|

D|-----------------|-----------------|-----------------|
A|-----------------|-----------------|-----------------|
E|-------7-----5-7-|---7---------2---|-1---0-----------|
B|-0-000---0-0-----|-0---0-0-0-------|---------3---2---|

D|-----------------|-----------------|-----------------|
A|-----------------|-----------------|-----------------|
E|-------7-----5-7-|---7-------------|-----------------|
B|-0-000---0-0-----|-0---0-0-3---3---|-6-7-6-----------|

D|-----------------|-----------------|-----------------|
A|-----------------|-----------------|-----------------|
E|-------7-----5-7-|---7---------2---|-1---0-----------|
B|-0-000---0-0-----|-0---0-0-0-------|-----------------|

D|-----------------|-----------------|-----------------|
A|-----------------|-----------------|-----------------|
E|-------7-----5-7-|---7-------------|-----------------|
B|-0-000---0-0-----|-0---0-0-3---3---|-6-7-6-----------|

D|-----------------|-----------------|-----------------|
A|-----------------|-----------------|-----------------|
E|-------7-----5-7-|---7-------------|---------5---6---|
B|-0-000---0-0-----|-0---0-0-3---5---|-6---7-----------|

D|---------|
A|---------|
E|---------|
B|-0---0---|

----------------
Song structure: |
----------------
Intro 1x
Main Riff 2x
Verse 2x
Pre-Chorus 1x
Chorus 1x
Interlude 1x
Solo 1x
Verse 2x
Pre-Chorus 1x
Chorus 1x
End 1x