Ataris — 1 15 96 Acoustic

-------------------------------------------------------------------------------
1*15*96 (Acoustic) - The Ataris
-------------------------------------------------------------------------------

Tabbed by: Mike Borland
Email: Mike8215@aol.com

Tuning: Standard

Intro:
e|--------------------------------------------------------------|
B|--------------------------------------------------------------|
G|-X-X-X-X--11-11-11--6-6-6--8-8-8------------------------------|
D|-X-X-X-X--11-11-11--6-6-6--8-8-8--8-8-8--99999999999--11-11---| 2X
A|-X-X-X-X--9--9--9---4-4-4--6-6-6--8-8-8--99999999999--11-11---|
E|-X-X-X-X--------------------------6-6-6--77777777777--9--9----|
1 2 3 4

Verse:
e|---------------------------------------|
B|---------------------------------------|
G|------------4-4-4-4-4--6-6-6-6-6-------| Play 2X, then Intro 2X
D|-4-4-4-4-4--4-4-4-4-4--6-6-6-6-6-------|
A|-4-4-4-4-4--2-2-2-2-2--4-4-4-4-4-------|
E|-2-2-2-2-2-----------------------------|

Chorus:
E|--------------------------------------------------------|
B|--------------------------------------------------------|
G|----------6666666-----------6666666--8888888--6666666---|
D|-4444444--6666666--4444444--6666666--8888888--6666666---|
A|-4444444--4444444--4444444--4444444--6666666--4444446---|
E|-2222222-----------2222222------------------------------|

Interlude:
E|-------------------------------------------------------------------------|
B|-------------------------------------------------------------------------|
G|-8-8-8---8-8-8/6-6--4-4-4---4-4-4/6-6--------------------6-6-6--6--6-6-6-|
D|-8-8-8---8-8-8/6-6--4-4-4---4-4-4/6-6--4-4-4--4-4-4-4-4--6-6-6--6--6-6-6-| 2X
A|-6-6-6---6-6-6/4-4--2-2-2---2-2-2/4-4--4-4-4--4-4-4-4-4--4-4-4--4--4-4-4-|
E|---------------------------------------2-2-2--2-2-2-2-2------------------|

Play Intro 2X, then Chorus, then Intro 2X and end.