Ataris — As We Speak

#----------------------------------PLEASE NOTE---------------------------------#
#This file is the author's own work and represents their interpretation of the-#
#song. You may only use this file for private study, scholarship, or research.-#
#------------------------------------------------------------------------------#

----------------------------------------------------------------------------------
AS WE SPEAK - The Ataris
-----------------------------------------------------------------------------------
By: Eder (eder_hc@terra.com.br)


INTRO: VERSE:
e|-----|--------------------------------------------------------------------------|
B|-----|--------------------------------------------------------------------------|
G|-----|-88888888-55555555------55-------------88888888-55555555------------------|
D|-8~~-|-88888888-55555555-6666-55-88-66666666-88888888-55555555-66--66--88888888-|
A|-8~~-|-66666666-33333333-6666-33-88-66666666-66666666-33333333-66--66--88888888-|
E|-6~~-|-------------------4444----66-44444444-------------------44--44--66666666-|

CHORUS: OUTRO:
e|-------------------------------------------------------------------|------------|
B|-------------------------------------------------------------------|------------|
G|------------8888-5555----------------------------------------------|--8---------|
D|--6666-8888-8888-5555-6666-8888-66666666-88888888-66666666-8888-8--|--8---------|
A|--6666-8888-6666-3333-6666-8888-66666666-88888888-66666666-8888-8--|--6---------|
E|--4444-6666-----------4444-6666-44443344-66666666-44443344-6666-6--|------------|
PM........................

PLAY IN THIS ORDER:
Intro, Verse, Chorus, Verse, Chorus, Outro

This is my favorite song from Anywhere but Here, and it's really simple...
I think this is pretty accurate, but if you have questions, suggestions,
or corrections, feel free to email me!
================================================================