Ataris — Between You And Me

На этой странице Вы можете ознакомиться с 3 версиями подбора аккордов для гитары к песне "Between You And Me" группы (исполнителя) "Ataris".

Song:  Between You and Me
Band: The Ataris
Author: Kevin Paolozzi
E-mail: nookied@hotmail.com

============================================================================

Intro

G |--------------------------------------------------------------------|
D |--------------------------------------------------------------------|
A |---4444--5555-------------------4444--5555----------7777------------|
E |--------------------5555--0000-------------------5555---------------|

Beginning Riff

G |----------------------------------------------------------------------------|
D |----------------------------------------------------------------------------|
A |--4-------5------------------------4------5------------7--------------------|
E |-------------------5-------0---------------------5--------------------------|

G |-------------------------------------------------------------------------|
D |-------------------------------------------------------------------------|
A |--4--------5------------------------4------5--------------77777----------|
E |-------------------5-------0-----------------------5555------------------|


Pre Chorus

G |-----------------------------------------------------------------------|
D |-----------------------------------------------------------------------|
A |---------------------------4444--55-((Pause Here))---5555--7777--xxxx--|
E |--5555--4444--2222-----------------------------------------------------|


G |------------------------------------------------------------------------|
D |------------------------------------------------------------------------|
A |---------------------------4444--555555--7777---------------------------|
E |--5555--4444--2222------------------------------------------------------|

(x2)

G |--------------------------------------------------------------------|
D |--------------------------------------------------------------------|
A |---4444--5555-------------------4444--5555----------7777------------|
E |-------------------5555--0000-------------------5555----------------|


G |----------------------------------------------------------------------------|
D |----------------------------------------------------------------------------|
A |--4--------5------------------------4------5------------7-------------------|
E |-------------------5-------0----------------------5-------------------------|




G |-------------------------------------------------------------------------|
D |-------------------------------------------------------------------------|
A |--4--------5------------------------4------5--------------77777----------|
E |-------------------5-------0-----------------------5555------------------|


G |----------------------------------------------------------------------|
D |----------------------------------------------------------------------|
A |---------------------------4444--55((Pause Here))---5555--7777--xxxx--|
E |--5555--4444--2222----------------------------------------------------|


G |------------------------------------------------------------------------|
D |------------------------------------------------------------------------|
A |---------------------------4444--555555--7777---------------------------|
E |--5555--4444--2222------------------------------------------------------|

Chorus “In my mind!…”

G |----------------------------------------------------------------------|
D |----------------------------------------------------------------------|
A |---4444--5555---4444--5555--------------------------------------------|
E |----------------------------------------------------------------------|

Outro

G |---------------------------------------------------------------------------|
D |---------------------------------------------------------------------------|
A |--4--------5------------------------4------5-----7-------------------------|
E |-------------------5-------0-----------------------------------------------|

============================================================================
-------------------------------------------------------------------------------
BETWEEN YOU AND ME - The Ataris
-------------------------------------------------------------------------------

Tabbed By: JON BILLS (fatchants81@hotmail.com)

In my opinion this is one of the Atari's best songs, and it would
really make me mad to hear someone play this kickass song wrong. The other
tab posted is extremely wrong. Not even the chords are correct, and that's
really the only reason I am doing this one. If you would like me to give
you other CORRECT tabs e-mail me.

Intro:
Guitar 1
e|---------------------------------------------------------------------------|
B|14-14-15-14h15p14---14---17---14h15p14-14---14---15-14h15p14-14-1717171717-|
G|-14-14-14-------------14---14---14----------------14---14---14-------------|
D|---------------------------------------------------------------------------|
A|---------------------------------------------------------------------------|
E|---------------------------------------------------------------------------|

Guitar 2(just the chords not the strumming pattern. listen to the cd for
that.)
e|---------------------------------------------------------------------------|
B|---------------------------------------------------------------------------|
G|-6-6-7-7------------------6-6-7-7-----9-9----------------------------------|
D|-6-6-7-7-7-7-2-2----------6-6-7-7-7-7-9-9----------------------------------|
A|-4-4-5-5-7-7-2-2----------4-4-5-5-7-7-7-7----------------------------------|
E|---------5-5-0-0------------------5-5--------------------------------------|


Verse(one guitar only)(use these chords but just pluck the strings instead
of strumming chords)
e|---------------------------------------------------------------------------|
B|---------------------------------------------------------------------------|
G|-6-6-7-7--------------------6-6-7-7-----9-9--------------------------------|
D|-6-6-7-7-7-7-2-2------------6-6-7-7-7-7-9-9--------------------------------|
A|-4-4-5-5-7-7-2-2------------4-4-5-5-7-7-7-7--------------------------------|
E|---------5-5-0-0--------------------5-5------------------------------------|

Chorus:(can be played by one or two guitars. this is the one guitar version)
e|---------------------------------------------|
B|---------------------------------------------|
G|---------------6-6-999|THE |-7-777-99999xxxx|
D|-7-7-6-666-4-4-4-4-777|STOP |-7-777-99999xxxx|
A|-7-7-6-666-4-4-4-4-777| |-5-555-77777xxxx|
E|-5-5-4-444-2-2--------| |----------------|


e|------------------------------------------|
B|------------------------------------------|
G|---------------6-6-999-14---13---9---11--9|
D|-7-7-6-666-4-4-4-4-777-12---11---7---9---7|
A|-7-7-6-666-4-4-4-4-777-12---11---7---9---7|
E|-5-5-4-444-2-2----------------------------|
(to play the chorus with two guitars simply, play the normal chords(A to
G#/F#/D/High E)
and hold them while guitar 2 plays the higher octave parts at the appropriate times)

repeat verse:

repeat chorus:

ending(IN MY MIND!!!!):stop is on the A. then at the end of the third time
through the ending go back to the A for another stop.

guitar 1
e|---------------------------------------------------------------------------|
B|---------------------------------------------------------------------------|
G|-6-6-7-7-----9-9------------6-6-7-7-----9-9--------------------------------|
D|-6-6-7-7-7-7-9-9------------6-6-7-7-7-7-9-9--------------------------------|
A|-4-4-5-5-7-7-7-7------------4-4-5-5-7-7-7-7--------------------------------|
E|---------5-5------------------------5-5------------------------------------|

guitar 2
e|---------------------------------------------------------------------------|
B|---------------------------------------------------------------------------|
G|--14-14-14-14-14-13-14-14-14-14-14-13-14-14-14-14-14-14-13-14--------------|
D|--12-12-12-12-12-12-12-12-12-12-12-12-12-12-12-12-12-12-12-12--------------|
A|--12-12-12-12-12-12-12-12-12-12-12-12-12-12-12-12-12-12-12-12--------------|
E|---------------------------------------------------------------------------|

Soft ending: Same as verse(one guitar only)

I am positive that this tab is 100% correct. It is easy to figure out I am
surprised that the other guy that attempted to tab it was so far off. My
band covers one song per show and we did this once. It turned out really
great and it is still one of my favorites. Send your e-mails to
fatchants81@hotmail.com . I would be happy to send other songs upon
request.
Jon Bills

===============================================================================
#----------------------------------PLEASE NOTE--------------------------------#
#This file is the author's own work and represents their interpretation of the#
#song. You may only use this file for private study, scholarship, or research.#
#-----------------------------------------------------------------------------#

Author/Artist: The Ataris
Title: Between You and Me
Transcribed by: Loy Pearce
Email: stareathesunoo@hotmail.com

standard tuning

-----------------------------|------------------------------------------------
---14---14----15----14h15-14-|-14----14----17----14h15--14--------------------
-----14----14----14----------|----14----14----14------------------------------
-----------------------------|------------------------------------------------
-----------------------------|------------------------------------------------
-----------------------------|------------------------------------------------
Intro Guitar 1

-----------------------------|------------------------------------------------
---14---14----15----14h15-14-|-14----14----17-17-17-17-17-17-17---------------
-----14----14----14----------|----14----14------------------------------------
-----------------------------|------------------------------------------------
-----------------------------|------------------------------------------------
-----------------------------|------------------------------------------------
Intro continued Guitar 1

------------------------------------------------------------------------------
------------------------------------------------------------------------------
-----6-6-6-6-7-7-7-7----------------------------------------------------------
-----6-6-6-6-7-7-7-7-7-7-7-7-2-2-2-2------------------------------------------
-----4-4-4-4-5-5-5-5-7-7-7-7-2-2-2-2------x2----------------------------------
---------------------5-5-5-5-0-0-0-0------------------------------------------
Intro Guitar 2

---------------------------------------|--------------------------------------
---------------------------------------|--------------------------------------
---------------------------------------|-------------------------99999999-----
------6-----6h7-7----7---6---7p6-------|---6-----6h7-7---7777777799999999-----
----4---5------------------------7--x2-|-4---5-----------7777777777777777-----
-------------------5---0---------------|-----------------55555555-------------
Verse Palm muted................

-----------------------------------|-----------------------|------------------
-----------------------------------|-----------------------|------------------
--------------------------7-7/9-9--|----7-77-777/99-9-xxxx-|-14/13/9/11/9-----
---7--77-7--6-66-6-4-44-4-7-7/9-9--|----7-77-777/99-9-xxxx-|-xx/xx/x/xx/x-----
---7--77-7--6-66-6-4-44-4-5-5/7-7--|----5-55-555/77-7-xxxx-|-12/11/7/-9/7-----
---5--55-5--4-44-4-2-22-2----------|-----------------------|------------------
Chorus--Play this part BOTH Play this the Play this the
TIMES FIRST TIME ONLY SECOND TIME ONLY


------------------------------------------------------------------------------
------------------------------------------------------------------------------
---6-7---9--------------------------------------------------------------------
---6-7-7-9---x2---------------------------------------------------------------
---4-5-7-7--------------------------------------------------------------------
-------5----------------------------------------------------------------------
Ending--I didn't try to tab the number of strokes. Guitar 1

--------------------------------------|---------------------------------------
--------------------------------------|---------------------------------------
---14---------------------------------|--13-----14~---------------------------
---14--xalot--------------------------|--14-x4--14~---------------------------
---12---------------------------------|--12-----12~---------------------------
--------------------------------------|---------------------------------------
Ending Guitar 2

--------------------------------------|---------------------------------------
--------------------------------------|---------------------------------------
--------------------------------------|---------------------------------------
-----6---7---6h7-7-----7---6---7p6----|--6---7---6h7------7---9---9---9-------
---4---5---5---------0---7---7-----7--|4---5---5--------0---7---7---7---------
--------------------------------------|---------------------------------------
Last instrumental part

------------------------------------------------------------------------------
------------------------------------------------------------------------------
----------------------------------------5-------------------------------------
-----6---7---6h7-7-----7---6---7p6------5-