Ataris — Carnage

-----------------------------------------------------------------------------
CARNAGE - The Ataris
-----------------------------------------------------------------------------
Tabbed by:CluhouseChamp
Email:

Tuning: Standard

**During the chorus the C is played like this: x320033 **


Intro
e|-------------------|
B|-------------------|
G|-------------------|
D|-444-5555-7777-----|
A|-222-3333-5555-----|
E|-------------------|

Intro(cont.)
e|-------------------------------------------|
B|-------------------------------------------|
G|-666666--777-555----666--7-5--666-444------|
D|-777777--777-555----777--7-5--777-555------|
A|-777777--555-333----777--5-3--777-555------|
E|-555555--555-333----555--5-3--555-333------|


Verse

A C G F
You came clearier then ever before. You did what noone else can.
A C G F
Just never follow up when im away because I hurt you, you hurt me too.


Chorus

C G
You are a dream.
D F A
This is the longest that I've been with someone.
D C G
Theres no explaining,
F
And no escaping.
C G
You are a dream,
D F A
And there is nothing that can come between us.
D E
No need to look to deep,

I'll just never go to sleep.


Intro(cont.)
e|-------------------------------------------|
B|-------------------------------------------|
G|-666666--777-555----666--7-5--666-444------|
D|-777777--777-555----777--7-5--777-555------|
A|-777777--555-333----777--5-3--777-555------|
E|-555555--555-333----555--5-3--555-333------|



Verse 2

A C G F
I felt your body, as I remembered. Put me to shame when i was through.
A C G F
You put me down inside yourself, you managed to do it, you always do.


Chorus

C G
You are a dream.
D F A
This is the longest that I've been with someone.
D C G
Theres no explaining,
F
And no escaping.
C G
You are a dream,
D F A
And there is nothing that can come between us.
D E
No need to look to deep,

I'll just never go to sleep.

Intro
e|-------------------|
B|-------------------|
G|-------------------|
D|-444-5555-7777-----|
A|-222-3333-5555-----|
E|-------------------|


Bridge

A D
Did you know
G C
You missed the point of dreaming?
A D
When you said you needed more and more
G C
And ended up with less.


Verse

A C G F
This time I have you in me, I'll pull you out when I get up.
A C G F
I'll beat your pretty face and I will make this one real.


Chorus

C G
You are a dream.
D F A
This is the longest that I've been with someone.
D C G
Theres no explaining,
F
And no escaping.
C G
You are a dream,
D F A
And there is nothing that can come between us.
D E
No need to look to deep,

I'll just never go to sleep.


Intro
e|-------------------|
B|-------------------|
G|-------------------|
D|-444-5555-7777-----|
A|-222-3333-5555-----|
E|-------------------|

Thats it, i hope you enjoy it.


Chord Key
G C F D A E C(chorus)
e|-3---x---1---2---0---0---|--3---|
B|-3---1---1---3---1---0---|--3---|
G|-0---0---2---2---2---1---|--0---|
D|-0---2---3---0---2---2---|--2---|
A|-2---3---3---x---0---2---|--3---|
E|-3---x---1---x---x---0---|--x---|