Ataris — Eight Of Nine

На этой странице Вы можете ознакомиться с 2 версиями подбора аккордов для гитары к песне "Eight Of Nine" группы (исполнителя) "Ataris".

-------------------------------------------------------------------------------
Eight of Nine- The Ataris
-------------------------------------------------------------------------------

Tabbed by: Dan Jenkins
Email: Endisforever132@hotmail.com

Tuning:EADGBe


e|-x-x-x-x---0-----------------------4---------------------------------------|
B|-x-x-x-x---0-----------------------4---------------------------------------|
G|-x-x-x-x---1-----------------------5-------------------------6-------------|
D|-x-x-x-x---2-----------------------6----------------------7--6-------------|
A|-x-x-x-x---2-----------------------6----------------------7--4-------------|
E|-x-x-x-x---0-----------------------4----------------------5----------------|
These Hospital walls are the palest of white.

e|---------------------------------------------------------------------------|
B|---------------------------------------------------------------------------|
G|-6----------------------------------------4--------------------------------|
D|-6------------2---------------------------4-----------7--------------------|
A|-4------------2---------------------------2-----------7--------------------|
E|--------------0---------------------------------------5--------------------|
Here in this desert, they're reciting my last rights. The smell of these

e|---------------------------------------------------------------------------|
B|---------------------------------------------------------------------------|
G|-4-------------------------------------------------------------------------|
D|-4-----------------------2----------------------------6---------------7----|
A|-2-----------------------2----------------------------6---------------7----|
E|-------------------------0----------------------------4---------------5----|
halls bring temporary comfort, as the oxygen flows through my blood.

e|---------------------------------------------------------------------------|
B|---------------------------------------------------------------------------|
G|---------4-----------------------------------------------------4------4----|
D|-7-------4-------------------2---6----------------7------------4----4------|
A|-7-------2-------------------2---6----------------7------------2--2--------|
E|-5---------------------------0---4----------------5------------------------|
el corazon was poisoned tonight. She's on her eight of nine, oh.

e|---------------------------------------------------------------------------|
B|---------------------------------------------------------------------------|
G|-----------------------------------------------------------------------4---|
D|-2----------------------------------6-----------------------------7----4---|
A|-2----------------------------------6-----------------------------7----2---|
E|-0----------------------------------4-----------------------------5--------|
When half of all your prayers are insincere, the other half are lies.

e|---------------------------------------------------------------------------|
B|---------------------------------------------------------------------------|
G|--------------------------------------------6----------------------9-------|
D|-2-------------6-------------------------7--6----------------------9-------|
A|-2-------------6-------------------------7--4----------------------7-------|
E|-0-------------4-------------------------5---------------------------------|
Here is this watermark under this bridge, the point where it crested,

e|---------------------------------------------------------------------------|
B|---------------------------------------------------------------------------|
G|-9-----------------4---------------------------------------4---------------|
D|-9-----------------4-------------------7-------------------4---------------|
A|-7-----------------2-------------------7-------------------2---------------|
E|---------------------------------------5-----------------------------------|
rolled back and drifted into the sea. I climb from this wreckage as the

e|---------------------------------------------------------------------------|
B|---------------------------------------------------------------------------|
G|--------------------------------------------------------4------------------|
D|-2----------------------6------------7------------------4------------------|
A|-2----------------------6------------7------------------2------------------|
E|-0----------------------4------------5-------------------------------------|
smoke begins to clear from my lungs. The closest of close calls has

e|---------------------------------------------------------------------------|
B|---------------------------------------------------------------------------|
G|-4---------------6------------------9---------------------------4----------|
D|-4---------------6------------------9---------------------------4----------|
A|-2---------------4------------------7---------------------------2----------|
E|---------------------------------------------------------------------------|
happened tonight. It's time that I made things right, for the first time,

e|---------------------------------------------------------------------------|
B|---------------------------------------------------------------------------|
G|-4----------------------------------------------------------4--------------|
D|-4----------7--------6----------------------9---------------4--------------|
A|-2----------7--------6----------------------9---------------2--------------|
E|------------5--------4----------------------7------------------------------|
since the last time. Let this moment of clarity lift this curse which

e|---------------------------------------------------------------------------|
B|---------------------------------------------------------------------------|
G|---------------------------------------------------------------------------|
D|----------------7-7-7----7-7-7---------------------------------------------|
A|----------------7-7-7----7-7-7---------------------------------------------|
E|----------------5-5-5----5-5-5---------------------------------------------|
has been cast upon me.

e|-5----------------------------0-----------------------------4--------5-----|
B|-5----------------------------0-----------------------------4--------5-----|
G|-6----------------------------1-----------------------------5--------6-----|
D|-7----------------------------2-----------------------------6--------7-----|
A|-7----------------------------2-----------------------------6--------7-----|
E|-5----------------------------0-----------------------------4--------5-----|
So appreciate the good times, but don't take the worse for granted,

e|--5----------------7x------------------------------------------------------|
B|--5----------------7x------------------------------------------------------|
G|--6----------------8x------------------------------------------------------|
D|--7----------------9x------------------------------------------------------|
A|--7----------------9x------------------------------------------------------|
E|--5----------------7x------------------------------------------------------|
'cause you only get so many second chances.

Bridge: x8
e|------------------|
B|------------------|
G|------------------|
D|------------------|
A|-2------6---------|
E|-2------6---------|
B|-0------4---------|

Ending:
e|------0-----------|
B|-----0------------|
G|----1-------------|
D|---2--------------|
A|--2---------------|
E|-0----------------|

| / slide up
| slide down
| h hammer-on
| p pull-off
| ~ vibrato
| + harmonic
| x Mute note

===============================================================================
Artist:		The Ataris 
Song: Eight of nine [acoustic]
Album: Punk Goes Acoustic
Tabbed by: Per Karlsson [peer83@hotmail.com]

Tuning: Standard


e|---------------------------------------------------------------------------|
B|--------------------------------------------------5------------------------|
G|-----------1--------------5---------------------6-6------------------------|
D|---------2-2--------------6---------------------7-6------------------------|
A|---------2-2--------------6---------------------7-4------------------------|
E|-----------0--------------4---------------------5--------------------------|
These Hospital walls are the palest of white.

e|---------------------------------------------------------------------------|
B|-5----------------------------------------2--------------------------------|
G|-6------------1---------------------------4-----------6--------------------|
D|-6------------2---------------------------4-----------7--------------------|
A|-4------------2---------------------------2-----------7--------------------|
E|--------------0---------------------------------------5--------------------|
Here in this desert, they're reciting my last rights. The smell of these

e|---------------------------------------------------------------------------|
B|-2-------------------------------------------------------------------------|
G|-4---------------------1----------------------------5-----------------6----|
D|-4---------------------2----------------------------6-----------------7----|
A|-2---------------------2----------------------------6-----------------7----|
E|-----------------------0----------------------------4-----------------5----|
halls bring temporary comfort, as the oxygen flows through my blood.

e|---------------------------------------------------------------------------|
B|--------2------------------------------------------------------2-----------|
G|-6------4----------------2-------5--------------6--------------4------2----|
D|-7------4----------------2-------6--------------7--------------4----4------|
A|-7------2----------------2-------6--------------7--------------2--2--------|
E|-5-----------------------0-------4--------------5--------------------------|
el corazon was poisoned tonight. She's on her eight of nine.

e|---------------------------------------------------------------------------|
B|----------------------------------------------------------------------2-2--|
G|-1--------------------------------------5------------------------6----4-2--|
D|-2--------------------------------------6------------------------7----4-4--|
A|-2--------------------------------------6------------------------7----2-2--|
E|-0--------------------------------------4------------------------5---------|
When half of all your prayers are insincere, the other half are lies.

e|---------------------------------------------------------------------------|
B|-------------------------------------------5--------------------7----------|
G|-1------------5--------------------6-------6--------------------9----------|
D|-2------------6--------------------7-------6--------------------9----------|
A|-2------------6--------------------7-------4--------------------7----------|
E|-0------------4--------------------5---------------------------------------|
Here is this watermark under this bridge, the point where it crested,

e|---------------------------------------------------------------------------|
B|-7---------------2---------------------------------------2-----------------|
G|-9---------------4--------------6------------------------4-----------------|
D|-9---------------4--------------7------------------------4-----------------|
A|-7---------------2--------------7------------------------2-----------------|
E|--------------------------------5------------------------------------------|
rolled back and drifted into the sea. I climb from this wreckage as the

e|---------------------------------------------------------------------------|
B|-------------------------------------------------------2-------------------|
G|-1---------------------5-------------6-----------------4-------------------|
D|-2---------------------6-------------7-----------------4-------------------|
A|-2---------------------6-------------7-----------------2-------------------|
E|-0---------------------4-------------5-------------------------------------|
smoke begins to clear from my lungs. The closest of close calls has

e|---------------------------------------------------------------------------|
B|-2----------5-----------------------7--------------------------2-----------|
G|-4----------6-----------------------9--------------------------4-----------|
D|-4----------6-----------------------9--------------------------4-----------|
A|-2----------4-----------------------7--------------------------2-----------|
E|---------------------------------------------------------------------------|
happened tonight. It's time that I made things right, for the first time,

e|---------------------------------------------------------------------------|
B|-2-----------------2-5-------------------7-----------------2---------------|
G|-4---------6-------4-6-------------------9-----------------4---------------|
D|-4---------7-------4-6-------------------9-----------------4---------------|
A|-2---------7-------2-4-------------------7-----------------2---------------|
E|-----------5---------------------------------------------------------------|
since the last time. Let this moment of clarity lift this curse that

e|---------------------------------------------------------------------------|
B|---------------------------------------------------------------------------|
G|---------------6-6-6----6-6-6----------------------------------------------|
D|---------------7-7-7----7-7-7----------------------------------------------|
A|---------------7-7-7----7-7-7----------------------------------------------|
E|---------------5-5-5----5-5-5----------------------------------------------|
has been cast upon me.

e|---------------------------------------------------------------------------|
B|-------------------2-------------------------------------------------------|
G|-6-----------------4----------1-----------------------------5--------6-----|
D|-7-----------------4----------2-----------------------------6--------7-----|
A|-7-----------------2----------2-----------------------------6--------7-----|
E|-5----------------------------0-----------------------------4--------5-----|
So appreciate the good times, but don't take the worse for granted,

e|---------------------------------------------------------------------------|
B|-----------------2---------------------------------------------------------|
G|--6--------------4---------------------------------------------------------|
D|--7--------------4---------------------------------------------------------|
A|--7--------------2---------------------------------------------------------|
E|--5------------------------------------------------------------------------|
'cause you only get so many second chances.

Bridge:
e|------------------|
B|------------------|
G|------------------|
D|-1------5-6-------|
A|-2------6-7-------|
E|-2------6-7-------|
B|-0------4-5-------|

Ending:
e|------0-----------|
B|-----0------------|
G|----1-------------|
D|---2--------------|
A|--2---------------|
E|-0----------------|