Ataris — Giving Up On Love

Ataris - Giving Up on Love
By:Andrew Mcshan(Guitarguyx182@aol.com)

Intro:
e|---------------------------------------------------------------------------|
B|---------------------------------------------------------------------------|
G|7-7-7-7-7-7-7-7-----------------4-4-4-4-4-4-4-4----------------------------|
D|7-7-7-7-7-7-7-7-5-5-5-5-5-5-5-5-4-4-4-4-4-4-4-4-5-5-5-5-5-5-5-5------------|
A|5-5-5-5-5-5-5-5-5-5-5-5-5-5-5-5-2-2-2-2-2-2-2-2-5-5-5-5-5-5-5-5------------|
E|----------------3-3-3-3-3-3-3-3-----------------3-3-3-3-3-3-3-3------------|

e|---------------------------------------------------------------------------|
B|---------------------------------------------------------------------------|
G|7-7-7-14-14-14-12-11-7-7-7-14-14-14-12-16-14-12-11-9-7-7-7-7---------------|
D|---------------------------------------------------------------------------|
A|5-5-5-12-12-12-10--9-5-5-5-12-12-12-10-14-12-10--9-7-5-5-5-5---------------|
E|---------------------------------------------------------------------------|
Verse:
e|---------------------------------------------------------------------------|
B|---------------------------------------------------------------------------|
G|7-----------------------------------------4--------------------------------|
D|7---------------------5-------------------4---------------------------5----|
A|5---------------------5-------------------2---------------------------5----|
E|----------------------3-----------------------------------------------3----|

e|---------------------------------------------------------------------------|
B|---------------------------------------------------------------------------|
G|----------7----------------------------------------4-----------------------|
D|----------7-----------------5----------------------4-----------------------|
A|----------5-----------------5----------------------2-----------------------|
E|----------------------------3----------------------------------------------|

e|---------------------------------------------------------------------------|
B|---------------------------------------------------------------------------|
G|---------------------------------------------------------------------------|
D|-----5---------------------------------------------------------------------|
A|-----5---------------------------------------------------------------------|
E|-----3---------------------------------------------------------------------|

Guitar 2 Plays This During Verse
e|------------------------------9-------------9----------9-------------------|
B|--------------------------------10------------10---------10----------------|
G|7----6-7-9--------------6h7--------6-7-6-7--------6-7--------7-6-7-9-------|
D|------------4---5-4-2-0----------------------------------------------------|
A|5------------------------------------------------------------5-4-5-7-------|
E|---------------------------------------------------------------------------|

Pre Chorus:
e|---------------------------------------------------------------------------|
B|---------------------------------------------------------------------------|
G|-7----------------------------------------------4--------------------------|
D|-7--------------------------7-------------------4------------------5-------|
A|-5--------------------------7-------------------2------------------5-------|
E|----------------------------5--------------------------------------3-------|

e|---------------------------------------------------------------------------|
B|---------------------------------------------------------------------------|
G|-------------------------------7-------------------------------------------|
D|-------------------------------7----------------------------7--------------|
A|-------------------------------5----------------------------7--------------|
E|------------------------------------------------------------5--------------|

e|---------------------------------------------------------------------------|
B|---------------------------------------------------------------------------|
G|--------4------------------------------------------------------------------|
D|--------4---------------------------------5--------------------------------|
A|--------2---------------------------------5--------------------------------|
E|------------------------------------------3--------------------------------|

Chorus:
e|---------------------------------------------------------------------------|
B|---------------------------------------------------------------------------|
G|--------------------7-7-7-7-7-7-7-7-7-7---------------------7-7-7-7-7-7-7-7|
D|7-7-7-7-7-5-5-5-5-5-7-7-7-7-7-7-7-7-7-7-7-7-7-7-7-5-5-5-5-5-7-7-7-7-7-7-7-7|
A|7-7-7-7-7-5-5-5-5-5-5-5-5-5-5-5-5-5-5-5-7-7-7-7-7-5-5-5-5-5-5-5-5-5-5-5-5-5|
E|5-5-5-5-5-3-3-3-3-3---------------------5-5-5-5-5-3-3-3-3-3----------------|

e|---------------------------------------------------------------------------|
B|---------------------------------------------------------------------------|
G|7-7-----------------------------4-4-4-4-4-4-4-4-4-4------------------------|
D|7-7-7-7-7-7-7-7-7-5-5-5-5-5-5-5-4-4-4-4-4-4-4-4-4-4-5-5-5-5-5-5-7-7-7-7-7-7|
A|5-5-7-7-7-7-7-7-7-5-5-5-5-5-5-5-2-2-2-2-2-2-2-2-2-2-5-5-5-5-5-5-7-7-7-7-7-7|
E|----5-5-5-5-5-5-5-3-3-3-3-3-3-3---------------------3-3-3-3-3-3-5-5-5-5-5-5|

e|---------------------------------------------------------------------------|
B|---------------------------------------------------------------------------|
G|--------------------14-14-14-14-14-14-14-14-14-14--------------------------|
D|7-7-7-7-7-5-5-5-5-5--x--x--x--x--x--x--x--x--x--x-7-7-7-7-7-5-5-5-5-5------|
A|7-7-7-7-7-5-5-5-5-5-12-12-12-12-12-12-12-12-12-12-7-7-7-7-7-5-5-5-5-5------|
E|5-5-5-5-5-3-3-3-3-3-------------------------------5-5-5-5-5-3-3-3-3-3------|

e|---------------------------------------------------------------------------|
B|---------------------------------------------------------------------------|
G|14-14-14-14-14-14-14-14-14-14-----------------------------4-4-4-4-4-4-4-4-4|
D|-x--x--x--x--x--x--x--x--x--x-7-7-7-7-7-7-7-5-5-5-5-5-5-5-4-4-4-4-4-4-4-4-4|
A|12-12-12-12-12-12-12-12-12-12-7-7-7-7-7-7-7-5-5-5-5-5-5-5-2-2-2-2-2-2-2-2-2|
E|------------------------------5-5-5-5-5-5-5-3-3-3-3-3-3-3------------------|

e|---------------------------------------------------------------------------|
B|---------------------------------------------------------------------------|
G|---------------------------------------------------------------------------|
D|5-5-5-5-5-7-7-7-7-7--------------------------------------------------------|
A|5-5-5-5-5-7-7-7-7-7--------------------------------------------------------|
E|3-3-3-3-3-5-5-5-5-5--------------------------------------------------------|
Bridge: Guitar 1
e|---------------------------------------------------------------------------|
B|---------------------------------------------------------------------------|
G|7~-------------------------------------------------------------------------|
D|7~------------------------------5~----5~-----5~----------------------------|
A|5~------------------------------5~----5~-----5~----------------------------|
E|--------------------------------3~----3~-----3~----Pickslide---------------|
these past few weeks
I've been confused
sometimes I wonder if
I'm better off alone.

you fall in love
then break your heart.
you fall in love again
its never ending.

I used to have this friend
who took his fiance
to see billy idol
a couple weeks before
their wedding day.
the chick got backstage
and left my friend outside.
next day he called
from a hotel
asking for a ride.

I guess I'm giving up on love [x3]
'cause it really kind of sucks

uninspired
and growing tired
why am I always
so attracted to drama?

so here I am
grown up at 23
will someone tell me
what it takes to be happy?

I play in my band
and write a lot of songs
about relationships
and how mine went wrong.
maybe I'll meet that special
girl along the way
then she'll break my heart
and leave me crying.