Ataris — I Remember You

I REMEMBER YOU - The Ataris 

By: Jimnal (Twisted Youth)

~ - let ring
PM - palm mute
b - bend
h - hammer on
p - pull off

Intro: Acoustic
e|3------------------------------------3--------------------------------|
B|0-----------------------3------------0--------------------------------|
G|0-----------------------0------------0--------------------------------|
D|0-----------------------2------------0--------------------------------|
A|2-----------------------3------------2--------------------------------|
E|3------------------------------------3--------------------------------|
Woke up to the sound of pouring rain, the wind would whisper and I'd

Intro: Acoustic
e|-------------3--------------------------------------------------------|
B|3------------0----------------------------------3---------------------|
G|0------------0----------------------------------0---------------------|
D|2------------0----------------------------------2---------------------|
A|3------------2----------------------------------3---------------------|
E|-------------3-----------------------------------------------Pickslide|
think of you, and all the tears you cried, they called my name,

Intro: Both Guitars
e|----------------------------------------------------------------------|
B|----------------------------------------------------------------------|
G|7----------------------5----------------------------------------------|
D|7----------------------5----------------------------------------------|
A|5----------------------3----------------------------------------------|
E|----------------------------------------------------------------------|
And when you needed me I came through.

Verse: Both Guitars
e|----------------------------------------------------------------------|
B|----------------------------------------------------------------------|
G|-------------------------5~-------------------------------------------|
D|-5~----------------------5~-----------5~------------------------------|
A|-5~----------------------3~-----------5~------------------------------|
E|-3~-----------------------------------3~------------------------------|
I paint a picture of the days gone by, when love went blind and you

Verse: Both Guitars
e|----------------------------------------------------------------------|
B|----------------------------------------------------------------------|
G|------5~----------------------------------5~-----------7--------------|
D|------5~----------5~----------------------5~-----------7--------------|
A|------3~----------5~----------------------3~-----------5--------------|
E|------------------3~--------------------------------------------------|
would make me see, I'd stare a lifetime into your eyes, so that I

Verse: Both Guitars
e|----------------------------------------------------------------------|
B|----------------------------------------------------------------------|
G|-------------------5------------7-------------------------5-----------|
D|-------------------5------------7-------------------------5-----------|
A|-------------------3------------5-------------------------3-----------|
E|----------------------------------------------------------------------|
knew that you were there for me, time after time you were there for me.

Chorus: Both Guitars
e|----------------------------------------------------------------------|
B|----------------------------------------------------------------------|
G|-------------------7---------------------9----------------------------|
D|5------------------7---------------------9----------------------------|
A|5------------------5---------------------7----------------------------|
E|3---------------------------------------------------------------------|
Remember yesterday, walking hand in hand, love letters in the sand

Chorus: Both Guitars
e|----------------------------------------------------------------------|
B|----------------------------------------------------------------------|
G|5-----------------------------------------------7---------------------|
D|5--------------5--------------------------------7---------------------|
A|3--------------5--------------------------------5---------------------|
E|---------------3------------------------------------------------------|
I remember you, and through the sleepless nights and every endless day

Chorus: Both Guitars
e|----------------------------------------------------------------------|
B|----------------------------------------------------------------------|
G|9-----------------------5---------------------------------------------|
D|9-----------------------5---------------------------------------------|
A|7-----------------------3---------------------------------------------|
E|----------------------------------------------------------------------|
I'd wanna hear you say, I remember you.

Part right after Chorus: (2x) Both Guitars
e|----------------------------------------------------------------------|
B|----------------------------------------------------------------------|
G|--------------------5-5-5-5-5-5-5-5-5-5---------------------5--5--5~--|
D|5-5-5-5-5-5-5-5-5-5-5-5-5-5-5-5-5-5-5-5-5-5-5-5-5-5-5-5-5-5-5--5--5~--|
A|5-5-5-5-5-5-5-5-5-5-3-3-3-3-3-3-3-3-3-3-5-5-5-5-5-5-5-5-5-5-3--3--3~--|
E|3-3-3-3-3-3-3-3-3-3---------------------3-3-3-3-3-3-3-3-3-3-----------|

Verse 2: Guitar 1
e|----------------------------------------------------------------------|
B|----------------------------------------------------------------------|
G|-----------------------------5~---------------------------------------|
D|-5~--------------------------5~--------------5~-----------------------|
A|-5~--------------------------3~--------------5~-----------------------|
E|-3~------------------------------------------3~-----------------------|
We spent the summer with the top rolled down, wished ever after would

Verse 2: Guitar 2
e|----------------------------------------------------------------------|
B|----------------------------------------------------------------------|
G|----------------14b--14--14p12-14p12-14p12----14-12~------------------|
D|-------------------------------------------14-------------------------|
A|----------------------------------------------------------------------|
E|----------------------------------------------------------------------|
top rolled down.

Verse 2: Guitar 1
e|----------------------------------------------------------------------|
B|----------------------------------------------------------------------|
G|5~----------------------------------------5~--------------------------|
D|5~-----------5~---------------------------5~--------------------------|
A|3~-----------5~---------------------------3~--------------------------|
E|-------------3~-------------------------------------------------------|
be like this, you said I love you babe without a sound

Verse 2: Guitar 2
e|----------------------------------------------------------------------|
B|----------------------------------------------------------------------|
G|----------------------------11-12~------------------------------------|
D|----------------------12-14-------------------------------------------|
A|-----14h15~--12-14-15-------------------------------------------------|
E|----------------------------------------------------------------------|
be like this

Verse 2: Both Guitars
e|----------------------------------------------------------------------|
B|----------------------------------------------------------------------|
G|7---------------------------5-------------7---------------------------|
D|7---------------------------5-------------7---------------------------|
A|5---------------------------3-------------5---------------------------|
E|----------------------------------------------------------------------|
I said I'd give my life for just one kiss, I live for your smile and

Verse 2: Both Guitars
e|----------------------------------------------------------------------|
B|----------------------------------------------------------------------|
G|5---------------------------------------------------------------------|
D|5---------------------------------------------------------------------|
A|3---------------------------------------------------------------------|
E|----------------------------------------------------------------------|
die for your kiss.

Repeat Chorus: Both Guitars

Bridge: Both Guitars
e|----------------------------------------------------------------------|
B|----------------------------------------------------------------------|
G|---------------------------------------------------------------4-4-5--|
D|5----------------------------------7---------------------------4-4-5--|
A|5----------------------------------7---------------------------2-2-3--|
E|3----------------------------------5----------------------------------|
You..... We've had our share of hard times,

Bridge: Both Guitars
e|----------------------------------------------------------------------|
B|----------------------------------------------------------------------|
G|----------------------------------------------------------------------|
D|2--------------------5-5-2-2------7-----------------------------------|
A|2--------------------5-5-2-2------7-----------------------------------|
E|0--------------------3-3-0-0------5-----------------------------------|
but that's the price we paid, And through it all we kept the

Bridge: Both Guitars
e|----------------------------------------------------------------------|
B|----------------------------------------------------------------------|
G|7---------------------------------------------------------------------|
D|7---------------------------------------------------------------------|
A|5---------------------------------------------------------------------|
E|----------------------------------------------------------------------|
promise that we made, I swear you'll never be lonely.

Solo: Guitar 1 (4x)
e|----------------------------------------------------------------------|
B|----------------------------------------------------------------------|
G|------------------5-5-5-5-5-5-5-5-5-5---------------------------------|
D|5-5-5-5-5-5-5-5-5-5-5-5-5-5-5-5-5-5-5---------------------------------|
A|5-5-5-5-5-5-5-5-5-3-3-3-3-3-3-3-3-3-3---------------------------------|
E|3-3-3-3-3-3-3-3-3-----------------------------------------------------|

Solo: Guitar 2
e|-----------------------------------------------------------17b19~-----|
B|-7-8b10~-8~-7-8h10-8p7-8~----7-8---8---8----8---8---8-----------------|
G|---------------------------------9---7--------------------------------|
D|-----------------------------------------10---9---7-------------------|
A|------------------------------------------------------10--------------|
E|----------------------------------------------------------------------|

e|-15-17b19-15~--14h15-14-------------------14-15-----------------------|
B|------------------------15h17-15~--15h17~-------15~-13~-12~~~b13rb12~-|
G|----------------------------------------------------------------------|
D|----------------------------------------------------------------------|
A|----------------------------------------------------------------------|
E|----------------------------------------------------------------------|

Verse 3: (Feedback only)
Woke up to the sound of pouring rain
Washed away a dream of you
And nothing else could ever take you away

Verse 3: Both Guitars
e|----------------------------------------------------------------------|
B|----------------------------------------------------------------------|
G|----------7-----------------------5-----------------------------------|
D|----------7-----------------------5-----------------------------------|
A|----------5-----------------------3-----------------------------------|
E|pickslide-------------------------------------------------------------|
cuz you'll always be my dream come true,

Verse 3: Both Guitars
e|----------------------------------------------------------------------|
B|----------------------------------------------------------------------|
G|7---------------5x----------------------------------------------------|
D|7---------------5x----------------------------------------------------|
A|5---------------3x----------------------------------------------------|
E|----------------------------------------------------------------------|
over time and...

Repeat Chorus: Both Guitars

Outro: Guitar 1 (2x) 1st time 2nd
e|-----------------------------------------------|----------------|-----|
B|-----------------------------------------------|----------------|-----|
G|-----------------------------------------------|-5-5-5-5-5-5-5-5|-5~--|
D|5-5-5-5-5-5-5-5-5-5-5-5-5-5-5-5-2-2-2-2-2-2-2-2|-5-5-5-5-5-5-5-5|-5~--|
A|5-5-5-5-5-5-5-5-5-5-5-5-5-5-5-5-2-2-2-2-2-2-2-2|-3-3-3-3-3-3-3-3|-3~--|
E|3-3-3-3-3-3-3-3-2-2-2-2-2-2-2-2-0-0-0-0-0-0-0-0|----------------|-----|

Outro: Guitar 2 (x1, enters when Guitar 1 has played Outro x1)
e|----------------------------------------------------------------------|
B|----------------------------------------------------------------------|
G|-4-2-4-2-4-2-4-5--4-2-4-2-4-2-4-5--4-2-4-2-4-2-4-5--4~----------------|
D|-x-x-x-x-x-x-x-x--x-x-x-x-x-x-x-x--x-x-x-x-x-x-x-x--x~----------------|
A|-2-0-2-0-2-0-2-3--2-0-2-0-2-0-2-3--2-0-2-0-2-0-2-3--2~----------------|
E|----------------------------------------------------------------------|

Ending: Acoustic
e|-------3---------------0-------------3---------------3/53------------|
B|---------3---------3-----3-------------3---------3---3/53-------0/3~-|
G|---0-------0---------0-----0-----0-------0---------0-------5/75-2/4~-|
D|-----0-------0---2-----------2-----0-------0---2-----------4/64---5~-|
A|-2-------------3---------------2-------------3------------------------|
E|----------------------------------------------------------------------|

Email Me: Jimnal182@hotmail.com
Visit My Site: http://www.geocities.com/twisted_jimnal/
Visit My Bands Site: http://www.twistedyouth.cjb.net