Ataris — In This Diary

На этой странице Вы можете ознакомиться с 6 версиями подбора аккордов для гитары к песне "In This Diary" группы (исполнителя) "Ataris".

Song: In This Diray
Band: The Ataris
Tabbed by: Matt Scott
Email: matt5_fart@hotmail.com
------------------------------

Verse

G |---------------------------------------------------------------------|
D |---------------------------------------------------------------------|
A |-----------66666666----------44444444-------------66666666-44444444--|
E |-11111111-----------44444444-------------11111111--------------------|

Pre Chorus

G |------------------------------------------------|
D |------------------------------------------------|
A |------------4444-8888---------------------------|
E |--66666666--------------------------------------|

Chorus

G |------------------------------------------------|
D |------------------------------------------------|
A |-------6666------4444-------6666-44444444-------|
E |--1111------4444-------1111---------------------|

Bridge

G |-------------------------------------------------|
D |-------------------------------------------------|
A |--4444444444-----------6666666----------44444444-|
E |--------------11111111---------44444444----------|

Ending Verse

G |------------------------------------------------|
D |------------------------------------------------|
A |------6666------4444------6666-4----------------|
E |-1111------4444------1111-----------------------|
-------------------------------------------------------------------------------
IN THIS DIARY - THE ATARIS
-------------------------------------------------------------------------------

Tabbed By : Dan Guthrie
e-mail: philliphanatic@yahoo.com

Tuning: 1/2 step down (Eb, Ab, Db, Gb)

(Guitar intro, bass comes in at 0:11)

Verse

Gb|------------------------------------------------------------------------|
Db|-------------------------------00000000-----------------------00000000--|
Ab|---------------------00000000-------------------------------------------|
Eb|-22222222--00000000-----------------------22222222--00000000------------|

Pre-Chorus

Gb|---------------------|
Db|---------------------|
Ab|-22222222--55555555--|
Eb|---------------------|

Chorus
Gb|------------------------------------------------------------------------|
Db|------------------------------------------------------------------------|
Ab|-----------77777777------------55555555------------77777777--55555555---|
Eb|-22222222------------55555555------------22222222-----------------------|

Bridge (guitar for first part, bass comes in at 2:45)

Gb|------------------------------------------------------------------------|
Db|-----------------------------------------00000000-----------------------|
Ab|-55555555----------------------00000000---------------------------------|
Eb|-----------22222222--00000000-------------------------------------------|

Final Chorus

Gb|------------------------------------------------------------------------|
Db|------------------------------------------------------------------------|
Ab|-----------77777777------------55555555-----------77777777--5~----------|
Eb|-22222222------------55555555------------22222222-----------------------|

Order:
Verse x2
Pre-Verse x1
Chorus x2
Verse x2
Pre-Verse x1
Chorus x2
Bridge x1
Chorus x3 (slight pause on the second time)
Final Chourus x1



Note: I'm am pretty sure it is 100% correct, if you have any corrections,
please email me, because that means i have been playing it wrong, thank you, enjoy.
This song sounds pretty good when played acoustically. Its fairly simple too.

Just tune your guitar down half a step or just don't play along with the track,
eithers good.

F#m= 244222
E= 022100
A= x02220
D= xx0232
Bm= x24432

Tuning= Eb Ab Db Gb Bb Eb

Verse 1

F#m E
Here in this diary,
A D F#m E
I write you visions of my summer.
D
It was the best I ever had.
F#m E
There were choruses and sing-alongs,
A D
and that unspoken feeling.
F#m E D
Of knowing that right now is all that matters.
F#m E A
All the nights we stayed up talking
D F#m E
and listening to 80's songs;
D F#m
quoting lines from all those movies that we love.
E A D F#m E D
It still brings a smile to my face.
Bm D
I guess when it comes down to it...


Chorus

F#m E A D
Being grown up isn't half as fun as growing up
F#m E D
These are the best days of our lives.
F#m E
The only thing that matters
A D
is just following your heart
F#m E D
and eventually you'll finally get it right.


Verse 2

F#m E
Breaking into hotel swimming pools,
A D
and wreaking havoc on our world.
F#m E D
Hanging out at truck stops just to pass the time.
F#m E A D F#m E D
The black top's singing me to sleep.
F#m E
Lighting fireworks in parking lots,
A D
illuminate the blackest nights.
F#m E D
Cherry cokes under this moonlight summer sky.
F#m E A D F#m E D
2015 Riverside, it's time to say, 'goodbye.'
Bm D
Get on the bus, it's time to go.

Chorus

F#m E A D
Being grown up isn't half as fun as growing up
F#m E D
These are the best days of our lives.
F#m E
The only thing that matters
A D
is just following your heart
F#m E D
and eventually you'll finally get it right.

( here in between the choruses i think it hujst follows the same chord progressio
but the timing sounds odd, i just play the bass notes when doing this but on the
acoustic)

Chorus

F#m E A D
Being grown up isn't half as fun as growing up
F#m E D
These are the best days of our lives.
F#m E
The only thing that matters
A D
is just following your heart
F#m E D
and eventually you'll finally get it right.

F#m E A D
Being grown up isn't half as fun as growing up
F#m E D
These are the best days of our lives.
F#m E
The only thing that matters
A D
is just following your heart
F#m E D
and eventually you'll finally get it right.

Theres some bits in this last chorus where theres more emphasis, just play around,
i think its pretty fun to play.

Questions= Bex8787@hotmail.com

tabbed by Bex

Please rate this- go on, whats the worst that could happen?.............
The Ataris
In This Diary
This is in dropped D tuning,it sounds 100% but i dont think
i have the correct amount of strumming,so figure it out,rate this
tab,have fun
Intro
e-----------------------------
b-----------------------------
g-5----8---5----6---5----6----
d-6x16-6x8-6x10-6x8-6x10-6x16-
a-6----6---6----4---4----4----
D-----------------------------

Verse 1
e----------------------
b---------------------- first chord not P.M.
g----------------------only play first time
d-----------------6----to go into verse 1
a-3-3----1----6---4x32-
E-3-3x16-1x16-6x16-----
P.M.~~~~~~~~~~~~~~~~

guitar 2 (0:22)(clean)
e--------------
b--------------
g-5-----3------
d--6-x4---5-x3-
a--------------
D--------------

guitar 1(0:27) x2
e----------
b----------
g-6---5----
d-6x6-x-x4-
a-4---4----
E----------

guitar 2 (0:44)(clean)
e----------------------
b----------------------
g-5-----8-------5------
d--6-x4---6-x3----6-x3-
a----------------------
D----------------------

guitar 1(0:49) x2
e----------
b----------
g-6---5----
d-6x6-x-x4-
a-4---4----
D----------

prechorus
guitar 1
e------
b------
g------
d-3-3/6-
a-1-1/4-
D-------

after guitar 1 plays the first Bm powerchord guitar 2 plays
e---------
b---------
g---------
d---------
a-4-4-4-4-
D---------

after guitar 1 plays C# powerchord guitar 2 plays
e---------
b---------
g---------
d-3-3-3-3-
a---------
E---------

Chorus 1
guitar 1(x2)
e---------------------
b---------------------
g---------------------
d----------------6----
a-3----1----6----4-x5-
D-3-x5-1-x7-6-x5------

when guitar 1 is playing C# powerchord
in chorus first time guit. 2 plays
e-----------
b-----------
g-5-5-6-5--
d--6-6-6-6-
a-----------
E-----------

when guitar 1 is playing C# powerchord
in chorus second time guit. 2 plays
e---------
b---------
g---------
d---------
a-6-4-3h4-
D---------

Preverse(2nd verse)x2
e-----------
b-----------
g-3----5----
d-6----6----
a-6-x8-6-x8-
D-----------

Verse 2
e----------------------
b---------------------- first chord not P.M.
g----------------------only play first time
d-----------------6----to go into verse 2
a-3-3----1----6---4x32-
E-3-3x16-1x16-6x16-----
P.M.~~~~~~~~~~~~~~~~

guitar 2 (1:35)(clean)
e----------------------
b----------------------
g-5-----8-------5------
d--6-x4---6-x3----6-x3-
a----------------------
D----------------------

guitar 1(1:41) x2
e----------
b----------
g-6---5----
d-6x6-x-x4-
a-4---4----
D----------

guitar 2 faintly played(1:58)
e-------3------
b--------4-x-4-
g--------------
d-5------------
a--6-x4--------
D--------------

guitar 1(2:02) x2
e----------
b----------
g-6---5----
d-6x6-x-x4-
a-4---4----
D----------

guitar 2(2:02)play with guitar 1
e-8----
b----x4-
g--8/---
d-------
a-------
D-------

prechorus
guitar 1
e------
b------
g------
d-3-3/6-
a-1-1/4-
D-------

after guitar 1 plays the first Bm powerchord guitar 2 plays
e---------
b---------
g---------
d---------
a-4-4-4-4-
D---------

after guitar 1 plays C# powerchord guitar 2 plays
e---------
b---------
g---------
d-3-3-3-3-
a---------
E---------

Chorus 2
guitar 1(x3)
e---------------------
b---------------------
g---------------------
d----------------6----
a-3----1----6----4-x5-
D-3-x5-1-x7-6-x5------

on fourth time guitar 1 plays
e----------
b----------
g----------
a-3----1---
D-3-x5-1-x5-

when guitar 1 is playing Bm powerchord(66||||)
in chorus second time guit. 2 plays
e-8-8-9-8--
b----------
g--8-8-8-8-
d----------
a----------
D----------

when guitar 1 is playing C# powerchord
in chorus second time guit. 2 plays
e---------
b---------
g---------
d---------
a-6-4-3h4-
D---------

Breakdown(2:33)
e---------------------------
b---------------------------
g-3----5----3----5----6-----
d-6----6----6----6----6-----
a-6-x8-6-x8-6-x8-6-x8-6-x16-
D---------------------------

e------------------------
b------------------------
g------------------------
d-----------------6------
a-3----1----6-----4x32---
E-3x16-1x16-6x16---------
P.M.~~~~~~~~~~~~~~~~

While guitar 2 is playin the second part(chorus chords)
guitar 2 plays the intro with it(dont have # of strums)
e-------------
b-------------
g-5-8-5-6-5-6-
d-6-6-6-6 6-6-
a-6-6-6-4-4-4-
D------------- feedback

Chorus 3
guitar 1(x2 then pause)
e---------------------
b---------------------
g---------------------
d----------------6----
a-3----1----6----4-x5-
D-3-x5-1-x7-6-x5------

when guitar 1 is playing Bm powerchord(66||||)
in chorus second time playin whats above guit. 2 plays
e-8-8-9-8--
b----------
g--8-8-8-8-
d----------
a----------
D----------

after pause-
guitar 1(x1)
e---------------------
b---------------------
g---------------------
d----------------6----
a-3----1----6----4-x5-
D-3-x5-1-x7-6-x5------

when guitar 1 is playin C# powerchord first time
guitar 2 plays
e---------
b---------
g-8-6-5h6-
d---------
a---------
D---------

guitar 1
e--------------
b---------------
g---------------
d----------6----
a-3----1---4-x7-
D-3-x5-1-x5-----

pick scrape

guitar 1
e----------------------------------
b----------------------------------
g----------------------------------
d---------------6-------------6----
a-3----1----6---4-x6-3----1---4-x7-
D-3-x5-1-x6-6-x5-----3-x5-1-x6-----

guitar 2(played with guitar 1)
e---------------------------------------------------------------------
b-9-9-9-9-8-8-8-8-8-8-9-9-8-8-8-4-4-4-4-9-9-9-9-9-11-11-11-11-9-9-9-9-
g---------------------------------------------------------------------
d---------------------------------------------------------------------
a---------------------------------------------------------------------
D---------------------------------------------------------------------

Guitar 1
e-------------------------------
b-------------------------------
g-------------------------------
d---------------6-------------6~
a-3----1----6---4-x6-3----1---4~
D-3-x5-1-x6-6-x5-----3-x5-1-x6--

guitar 2(played with guitar 1 until end)
e---------------------------------------------------------------
b-9-9-9-9-8-8-8-8-8-8-9-9-8-8-8-4-4-4-4-9-9-9-9-9-11-11-11-11-9~
g---------------------------------------------------------------
d---------------------------------------------------------------
a---------------------------------------------------------------
D---------------------------------------------------------------

Well,thats it,its all in order,this took a long
time and again the strumming isnt right,please
rate this tab and put as many comments as you
can,thanks
Artist: The Atris
Title:In this diary
Album: So Long Astoria

Tabbed by Sean Green (the_bunglist@yahooo.com)
Drop D tuning
This is THE correct version of this song.

INTRO


E ---------------------------------------------------------------------|
A ---------------------------------------------------------------------|
D -6-6-6-6-6-6-6-6-6-6-6-6-6-6-6-6-6-6-6-6-6-6-6-6---------------------|
G -5-5-5-5-5-5-5-5-5-5-5-5-5-5-5-5-8-8-8-8-8-8-8-8---------------------|
B ---------------------------------------------------------------------|
e ---------------------------------------------------------------------|

E ---------------------------------------------------------------------|
A ---------------------------------------------------------------------|
D -6-6-6-6-6-6-6-6-6-6-6-6-6-6-6-6-6-6-6-6-6-6-6-6---------------------|
G -5-5-5-5-5-5-5-5-6-6-6-6-6-6-6-6-5-5-5-5-5-5-5-5---------------------|
B ---------------------------------------------------------------------|
e ---------------------------------------------------------------------|

E ---------------------------------------------------------------------|
A ---------------------------------------------------------------------|
D -6-6-6-6-6-6-6-6-6-6-6-6-6-6-6-6-------------------------------------|
G -6-6-6-6-6-6-6-6-6-6-6-6-6-6-6-6-------------------------------------|
B ---------------------------------------------------------------------|
e ---------------------------------------------------------------------|

VERSE

E -3-3-3-3-3-3-3-3-3-3-3-3-3-3-3-3-1-1-1-1-1-1-1-1-1-1-1-1-1-1-1-1-----|
A -3-3-3-3-3-3-3-3-3-3-3-3-3-3-3-3-1-1-1-1-1-1-1-1-1-1-1-1-1-1-1-1-----|
D ---------------------------------------------------------------------|
G ---------------------------------------------------------------------|
B ---------------------------------------------------------------------|
e ---------------------------------------------------------------------|

E -6-6-6-6-6-6-6-6-6-6-6-6-6-6-6-6-------------------------------------|
A -6-6-6-6-6-6-6-6-6-6-6-6-6-6-6-6-4-4-4-4-4-4-4-4-4-4-4-4-4-4-4-4-----|
D ---------------------------------6-6-6-6-6-6-6-6-6-6-6-6-6-6-6-6-----|
G ---------------------------------------------------------------------|
B ---------------------------------------------------------------------|
e ---------------------------------------------------------------------|

E -3-3-3-3-3-3-3-3-3-3-3-3-3-3-3-3-1-1-1-1-1-1-1-1-1-1-1-1-1-1-1-1-----|
A -3-3-3-3-3-3-3-3-3-3-3-3-3-3-3-3-1-1-1-1-1-1-1-1-1-1-1-1-1-1-1-1-----|
D ---------------------------------------------------------------------|
G ---------------------------------------------------------------------|
B ---------------------------------------------------------------------|
e ---------------------------------------------------------------------|


E ---------------------------------------------------------------------|
A -4-4-4-4-4-4-4-4-4-4-4-4-4-4-4-4-4-4-4-4-4-4-------------------------|
D -6-6-6-6-6-6-6-6-6-6-6-6-6-6-6-6-6-6-6-6-6-6-------------------------|
G -6-6-6-6-6-5-5-5-5-5-5-6-6-6-6-6-5-5-5-5-5-5-------------------------|
B ---------------------------------------------------------------------|
e ---------------------------------------------------------------------|

BRIDGE

E ---------------------------------------------------------------------|
A -1-1-1-1-4-4-4-4-4-4-4-4-8--8--8--8--8--8--8--8----------------------|
D -3-3-3-3-------------------------------------------------------------|
G -3-3-3-3-6-6-6-6-6-6-6-6-10-10-10-10-10-10-10-10---------------------|
B ---------------------------------------------------------------------|
e ---------------------------------------------------------------------|

CHORUS

E -3-3-3-3-1-1-1-1-6-6-6-6---------------------------------------------|
A -3-3-3-3-1-1-1-1-6-6-6-6-6-4-3-4-------------------------------------|
D ---------------------------------------------------------------------|
G -------------------------8-6-5-6-------------------------------------|
B ---------------------------------------------------------------------|
e ---------------------------------------------------------------------|


E -3-3-3-3-1-1-1-1-----------------------------------------------------|
A -3-3-3-3-1-1-1-1--4-4-4-4-4-4-4-4-4-4-4-4-4-4-4-4-4-4-4-4-4-4--------|
D ------------------6-6-6-6-6-6-6-6-6-6-6-6-6-6-6-6-6-6-6-6-6-6--------|
G ------------------6-6-6-6-6-5-5-5-5-5-5-6-6-6-6-6-5-5-5-5-5-5--------|
B ---------------------------------------------------------------------|
e ---------------------------------------------------------------------|

BEFORE THE 2ND VERSE AND AFTER THE SECOND CHORUS(more times for the 2nd
chorus one!!)

E ---------------------------------------------------------------------|
A ---------------------------------------------------------------------|
D -6-6-6-6-6-6-6-6-6-6-6-6-6-6-6-6-x2----------------------------------|
G -3-3-3-3-3-3-3-3-5-5-5-5-5-5-5-5-------------------------------------|
B ---------------------------------------------------------------------|
e ---------------------------------------------------------------------|

Listen to cd to get it perfect cus some of the ryhthms might be a bit
wrong. Hope this helps!!
Ataris - In This Diary 
By:Andrew Mcshan(Guitarguyx182@aol.com)


Intro
e-------------------------------------------------------------------|
B-------------------------------------------------------------------|
G-5-5-5-5-5-5-5-5--8-8-8-8--5-5-5-5--6-6-6-6--5-5--6-6-6-6-6-6-6-6--|
D-6-6-6-6-6-6-6-6--8-8-8-8--6-6-6-6--6-6-6-6--6-6--6-6-6-6-6-6-6-6--|
A-6-6-6-6-6-6-6-6--6-6-6-6--6-6-6-6--4-4-4-4--4-4--4-4-4-4-4-4-4-4--|
E-------------------------------------------------------------------|

Verse
(Guitar 1)
e-------------------------------------------------------------------|
B-------------------------------------------------------------------|
G-----------8-8-8-8-8-----------6-6-6-6-6-----------8-8-8-8-8-6-6-6-|
D-3-3-3-3-3-8-8-8-8-8-6-6-6-6-6-6-6-6-6-6-3-3-3-3-3-8-8-8-8-8-6-6-6-|
A-3-3-3-3-3-6-6-6-6-6-6-6-6-6-6-4-4-4-4-4-3-3-3-3-3-6-6-6-6-6-4-4-4-|
E-1-1-1-1-1-----------4-4-4-4-4-----------1-1-1-1-1-----------------|
(Guitar 2)
e-------------------------------------------------------------------|
B-------------------------------------------------------------------|
G-5---5---5---8---8---8---6---6---5---5---6---6---5---5-------------|
D---6---6---6---6---6---6---6---6---6---6---6---6---6---6-----------|
A-------------------------------------------------------------------|
E-------------------------------------------------------------------|

Pre Chorus
e------------------|
B------------------|
G---------6-6-6-6--|
D-8-8-8-8-6-6-6-6--|
A-8-8-8-8-4-4-4-4--|
E-6-6-6-6----------|

Chorus
e-------------------------------------------------------------------|
B-------------------------------------------------------------------|
G-----------8-8-8-8-8-----------6-6-6-6-6-----------8-8-8-8-8-6-6-6-|
D-3-3-3-3-3-8-8-8-8-8-6-6-6-6-6-6-6-6-6-6-3-3-3-3-3-8-8-8-8-8-6-6-6-|
A-3-3-3-3-3-6-6-6-6-6-6-6-6-6-6-4-4-4-4-4-3-3-3-3-3-6-6-6-6-6-4-4-4-|
E-1-1-1-1-1-----------4-4-4-4-4-----------1-1-1-1-1-----------------|

e-------------------------------------------------------------------|
B-------------------------------------------------------------------|
G-----------8-8-8-8-8-----------6-6-6-6-6-----------8-8-8-8-8-8-8-8-|
D-3-3-3-3-3-8-8-8-8-8-6-6-6-6-6-6-6-6-6-6-3-3-3-3-3-8-8-8-8-8-8-8-8-|
A-3-3-3-3-3-6-6-6-6-6-6-6-6-6-6-4-4-4-4-4-3-3-3-3-3-6-6-6-6-6-6-6-6-|
E-1-1-1-1-1-----------4-4-4-4-4-----------1-1-1-1-1-----------------|

e--------------------------------------------------|
B--------------------------------------------------|
G--6-6-6-6-6-5-5-5-5-6-6-6-6-6-6-5-5-5-5-5---------|
D--6-6-6-6-6-6-6-6-6-6-6-6-6-6-6-6-6-6-6-6---------|
A------------6-6-6-6-6-----------6-6-6-6-6---------|
E--------------------------------------------------|

Bridge
e-------------------------------------------------|
B-------------------------------------------------|
G-6-6-6-5-5-5-5-8-8-8-8-5-5-5-5-6-6-6-6-----------|
D-6-6-6-6-6-6-6-8-8-8-8-6-6-6-6-6-6-6-6-----------|
A-4-4-4-6-6-6-6-6-6-6-6-6-6-6-6-4-4-4-4-----------|
E-------------------------------------------------|


On the Last Chorus Guitar 2 Does this
e-----------------------------------------------------------|
B-----------------------------------------------------------|
G-13-13-13-12-12-12-13-13-13-12-12-12-8-8-8-8-13-13-15-15-6-|
D-x--x--x--x--x--x--x--x--x--x--x--x--x-x-x-x-x--x--x--x--6-|
A-11-11-11-10-10-10-11-11-11-10-10-10-6-6-6-6-11-11-13-13-4-|
E-----------------------------------------------------------|

Here in this diary
I write you visions of my summer
It was the best I ever had
There were choruses and singalongs
And that unspoken feeling of knowing
That right now is all that matters

All the nights we stayed up talking
Listening to 80's songs
And quoting lines from all those movies
That we know
It still brings a smile to my face

I guess when it comes down to it
Being grown up isn't half as fun as growing up
These are the best days of our lives
The only thing that matters is just following your heart
And eventually you'll finally get it right

Breaking into hotel swimming pools
And wreaking havoc on our world
Hanging out at truck stops
Just to pass the time
The black tops singing me to sleep

Lighting fireworks in parking lots
Illuminate the blackest nights
Sharing cokes under this moonlit summer sky
2015 Riverside, it's time to say goodbye

Get on the bus, it's time to go
Being grown up isn't half as fun as growing up
These are the best days of our lives
The only thing that matters is just following your heart
And eventually you'll finally get it right

(Get it right)

Being grown up isn't half as fun as growing up
These are the best days of our lives
The only thing that matters is just following your heart
And eventually you'll finally get it right