Ataris — Looking Back On Today

На этой странице Вы можете ознакомиться с 2 версиями подбора аккордов для гитары к песне "Looking Back On Today" группы (исполнителя) "Ataris".

-----------------------------------------------------------------------------
Looking Back On Today - The Ataris
-----------------------------------------------------------------------------
Tabbed by:Nhan Hoang
Email:(Krossbreed70@aol.com)
Tuning:Standard

Note:This is the absolute correct version, the other version is simplified,
but this is correct and easy to learn, one of my favorite Ataris song, Enjoy.


Intro and Verse
e|--0-------0---0---0---0---0---0---0---0--|
B|--5---7---5---2---5---5---5---4---2---1--|
G|--4---4---6---2---4---4---6---4---2---2--|
D|--2-------6---2---2---2---6---4---2---2--|
A|--2---6---4---0---2---3---4---2---0---0--|
E|-----------------------------------------| Repeat intro 2x


Pre-chorus

e|--2---0---0---0---0---2---4---0---0---x--|
B|--2---2---5---4---2---2---4---2---1---x--|
G|--2---2---6---4---2---2---4---2---2---x--|
D|--4---2---6---4---2---4---6---2---2---x--|
A|--4---0---4---2---0---4---6---0---0---x--|
E|--2-------------------2---4-----------x--|

Chorus
e|--0---0---0---0---0---0---0---0---0---0---0---x--|
B|--5---5---5---4---2---5---5---5---4---2---1---x--|
G|--4---4---6---4---2---4---4---6---4---2---2---x--|
D|--2---2---6---4---2---2---2---6---4---2---2---x--|
A|--2---3---4---2---0---2---3---4---2---0---0---x--|
E|----------------------------------------------x--| Repeat Chorus 1x
-------------------------------------------------------------------------------
LOOKING BACK ON TODAY – The Ataris
-------------------------------------------------------------------------------

By: Spike (Jim@PleasantDelay.com)

This tab is pretty much correct. I simplified the chords, because the real
chords to the song are really difficult.

Intro: X1 ^ means full measure. * means half measure. ~ means let chord ring.
e|--------------------------------------------------------------------|
B|-------7-------------------7-------------------1--------------------|
G|--9----9----6----2----9----9----6----4----2----2--------------------|
D|--9----9----6----2----9----9----6----4----2----2--------------------|
A|--7----6----4----0----7----6----4----2----0----0--------------------|
E|--------------------------------------------------------------------|
^ ^ ^ ^ * * * * ^ ~
Verse: X2
e|--------------------------------------------------------------------|
B|-------7-------------------7-------------------1--------------------|
G|--9----9----6----2----9----9----6----4----2----2--------------------|
D|--9----9----6----2----9----9----6----4----2----2--------------------|
A|--7----6----4----0----7----6----4----2----0----0--------------------|
E|--------------------------------------------------------------------|
^ ^ ^ ^ * * * * ^ ^
Pre Chorus: X1
e|--------------------------------------------------------------------|
B|--------------------------------------------------------------------|
G|--2----4----6----4----2----2----4----6----4-x-x-x-------------------|
D|--4----6----6----4----2----4----6----6----4-x-x-x-------------------|
A|--4----6----4----2----0----4----6----4----2-x-x-x-------------------|
E|--2----4-------------------2----4-----------------------------------|
^ ^ * * ^ ^ ^ ^ ^
Chorus: X2 2nd time let ring
e|--------------------------------------------------------------------|
B|-------7------------------------7-------------------1-x-------------|
G|--9----9----6----4----2----9----9----6----4----2----2-x-------------|
D|--9----9----6----4----2----9----9----6----4----2----2-x-------------|
A|--7----6----4----2----0----7----6----4----2----0----0-x-------------|
E|--------------------------------------------------------------------|
^ ^ * * ^ * * * * ^ ^

-------------------------------------------------------------------------------