Ataris — Losing Streak

LOSING STREAK - Ataris
-------------------------------------------------------------------------------

By: Ryan (fender_strat_us@yahoo.com)

Intro:
G|---------------------------------------------------------------------
D|---------------------------------------------------------------------
A|-------------------------------7-7-6-4-7-7-9-7-----------------------
E|-7--7--7--7-9-7-4--4--4--4-6-4------------------7-7-6-4-2-2----------

Verse:
G|---------------------------------------------------------------------
D|---------------------------------------------------------------------
A|---------------------------------------------------------------------
E|-7-7-7-7-7-7-7-7-7-7-7-7-7-7-7-7-7-9-7-4-4-4-4-4-4-4-4-4-4-4-4-4-4-4-

G|---------------------------------------------------------------------
D|---------------------------------------------------------------------
A|---------7-7-7-7-7-7-6-4-7-7-7-7-7-7-9-7-----------------------------
E|-4-4-6-4---------------------------------7-7-7-7-7-7-7-6-4-2-2-2-2-2-

G|---------------------------------------------------------------------
D|---------------------------------------------------------------------
A|---------------------------------------------------------------------
E|-2-2-2---------------------------------------------------------------

Chorus:
G|---------------------------------------------------------------------
D|---------------------------------------------------------------------
A|-7-7-7-7-7-7-9-9-9-9-9-9-7-7-7-6-6-6-4-4-2-2-2-2---------------------
E|---------------------------------------------------------------------


Bridge:

G|---------------------------------------------------------------------
D|---------------------------------------------------------------------
A|-7-7-7-7-7-7-7-9-7-6-------------------------------------------------
E|---------------------------------------------------------------------

Ending:
G|---------------------------------------------------------------------
D|---------------------------------------------------------------------
A|-2-2-2-4-2---------------X-X-7-X-X-6-X-X-4-X-X-2---------------------
E|-----------4-4-4-4-4-4-4---------------------------------------------

Outro:
G|---------------------------------------------------------------------
D|---------------------------------------------------------------------
A|-7-7-6-6-4-4-7-7-2---------------------------------------------------
E|---------------------------------------------------------------------

Order:
Intro
Verse x2
Chorus x2
Bridge
Verse x2
Chorus x2
Bridge
Ending x3