Ataris — My Reply

На этой странице Вы можете ознакомиться с 3 версиями подбора аккордов для гитары к песне "My Reply" группы (исполнителя) "Ataris".

-----------------------------------------------------------------
My Reply - The Ataris
-----------------------------------------------------------------
This tab is the author's work and represents their interpretation
of the song.
this is my first time to submit a tab....i hope you like my work.
hi to all my band mates, especially to jet and pedz!!! cheers!!!
Written by: Kris Roe

Tabbed by: Byron Andrada
Email: spank_ie05@yahoo.com

Tuning: Standard: (E A D G B E) use distortion
-----------------------------------------------------------------
Intro

Gtr1
e|----10----------------10----------------------
B|------10-----------10-----10-----------10-----
G|--------12-11--12------------12-11--12--------
D|----------------------------------------------
A|----------------------------------------------
E|---------------------------------------------- Play 4 times

e|----10-------------10------------10-------------------
B|------10---------10--10--------10---10----------------
G|--------12-11-12-------12-11-12--------12-11----------
D|------------------------------------------------------
A|------------------------------------------------------
E|------------------------------------------------------ Play 4 times

Gtr2
e|-----|-----|-----|---------
B|-----|-----|-----|---------
G|--7--|--4--|--5--|---------
D|--7--|--4--|--5--|--5---7--
A|--5--|--2--|--3--|--5---7--
E|-----|-----|-----|--3---5-- Play twice (palm muted 1st time)

Verse:

Gtr2 (palm muted)
e|-----|-----|-----|-------
B|-----|-----|-----|-------
G|--7--|--4--|--5--|-------
D|--7--|--4--|--5--|--5----
A|--5--|--2--|--3--|--5----
E|-----|-----|-----|--3----

After that sequence,

Gtr2 plays (palm muted)... Gtr1 plays over the top...(four times)
e|-----|-----|-----|---------|-----10---------------10--------------------
B|-----|-----|-----|---------|-------10----------10-----10----------10----
G|--7--|--4--|--5--|---------|---------12-11--12-----------12-11--12------
D|--7--|--4--|--5--|--5---7--|--------------------------------------------
A|--5--|--2--|--3--|--5---7--|--------------------------------------------
E|-----|-----|-----|--3---5--|--------------------------------------------

Bridge:

e|--------|------------|--------|-------
B|--------|------------|--------|-------
G|-----7--|------------|-----7--|-------
D|--5--7--|--7---9-7---|--5--7--|--7----
A|--5--5--|--7---9-7---|--5--5--|--7----
E|--3-----|--5---7-5---|--3-----|--5---- Play twice

Gtr1(lead part)
e|--10--10--10--10-9---9--9--9----9--9--9--------10----9----
B|----10--10--10-----10-10-10---10-10-10-10----10----10-----
G|-------------------------------------------12----11-------
D|----------------------------------------------------------
A|----------------------------------------------------------
E|----------------------------------------------------------

e|--10--10--10--10-9---9--9--9----9--9--9--9--9-------------
B|----10--10--10-----10-10-10---10-10-10-10-10-10-----------
G|----------------------------------------------------------
D|----------------------------------------------------------
A|----------------------------------------------------------
E|----------------------------------------------------------play twice

Chorus:

e|-----|-----|-----|------
B|-----|-----|-----|------
G|--7--|--4--|--5--|------
D|--7--|--4--|--5--|--5---
A|--5--|--2--|--3--|--5---
E|-----|-----|-----|--3---

e|-----|-----|-----|---------
B|-----|-----|-----|---------
G|--7--|--4--|--5--|---------
D|--7--|--4--|--5--|--5---7--
A|--5--|--2--|--3--|--5---7--
E|-----|-----|-----|--3---5--


Gtr2 plays...... Gtr1 plays.......(twice).
e|--------------------10--------------10------------------------
B|----------------------10----------10----10----------10--------
G|--7---------------------12-11--12----------12-11--12----------
D|--7-----------------------------------------------------------
A|--5-----------------------------------------------------------
E|--------------------------------------------------------------

Then Gtr2 plays......
e|-----|-----|-----|-----
B|-----|-----|-----|-----
G|--7--|--4--|--5--|-----
D|--7--|--4--|--5--|--5--
A|--5--|--2--|--3--|--5--
E|-----|-----|-----|--3--
(During this time Gtr1 plays the second riff of the intro)

e|-----|-----|-----|----------
B|-----|-----|-----|----------
G|--7--|--4--|--5--|----------
D|--7--|--4--|--5--|--5---7---
A|--5--|--2--|--3--|--5---7---
E|-----|-----|-----|--3---5---


Bridge:

e|--------|------------|--------|-------
B|--------|------------|--------|-------
G|-----7--|------------|-----7--|-------
D|--5--7--|--7---9-7---|--5--7--|--7----
A|--5--5--|--7---9-7---|--5--5--|--7----
E|--3-----|--5---7-5---|--3-----|--5---- Play twice

Gtr1(lead part)
e|--10--10--10--10-9---9--9--9----9--9--9--------10----9----
B|----10--10--10-----10-10-10---10-10-10-10----10----10-----
G|-------------------------------------------12----11-------
D|----------------------------------------------------------
A|----------------------------------------------------------
E|----------------------------------------------------------

e|--10--10--10--10-9---9--9--9----9--9--9--9--9-------------
B|----10--10--10-----10-10-10---10-10-10-10-10-10-----------
G|----------------------------------------------------------
D|----------------------------------------------------------
A|----------------------------------------------------------
E|----------------------------------------------------------play twice

Final chorus:

e|-----|-----|-----|------
B|-----|-----|-----|------
G|--7--|--4--|--5--|------
D|--7--|--4--|--5--|--5---
A|--5--|--2--|--3--|--5---
E|-----|-----|-----|--3--- Play 3 times, then....

e|-----|-----|-----|----------
B|-----|-----|-----|----------
G|--7--|--4--|--5--|----------
D|--7--|--4--|--5--|--5---7---
A|--5--|--2--|--3--|--5---7---
E|-----|-----|-----|--3---5---

Gtr2 ends on... Gtr1 (outro).......(three times)
e|---------------------10---------------10-------------------
B|-----------------------10----------10-----10----------10---
G|--7----------------------12-11--12-----------12-11--12-----
D|--7--------------------------------------------------------
A|--5--------------------------------------------------------
E|-----------------------------------------------------------

Gtr1 (outro continued).......
e|--10---------------10--------
B|----10-------------10--------
G|------12-11-12-11--11--------
D|-----------------------------
A|-----------------------------
E|-----------------------------
hope you enjoy it!!! any suggstions? just email me at spank_ie05@yahoo.com
hey everyone, i messed up on the last one, i remade it though, i think its a lot better

-------------------------------------------------------------------------------
My Reply - The Ataris
-------------------------------------------------------------------------------
Tabbed by: Robbie Lewis
Email: newjew72@aol.com

Tuning: standard
intro:
e|----10--------------10-----------------------------------------------------|
B|-------10-8----8-10----10-8----8-10----(X4)--------------------------------|
G|------------11--------------11---------------------------------------------|
D|---------------------------------------------------------------------------|
A|---------------------------------------------------------------------------|
E|---------------------------------------------------------------------------|
then(with faster strumming) with chorus in background:
e|-----10--------------10--------------10------------------------------------|
B|--------10-8----8-10----10-8----8-10----10-8-------------------------------|
G|-------------11--------------11--------------11----(X4)--------------------|
D|---------------------------------------------------------------------------|
A|---------------------------------------------------------------------------|
E|---------------------------------------------------------------------------|
verse 1:
e|----------------------------------------|----|---------------------------------------------|
B|----------------------------------------|----|---------------------------------------------|
G|-----7--------4--------5----------------|----|---------------------------------------------|
D|-----7-(X16)--4-(X16)--5-(X16)--5-------|(X4)|--intro comes in here after 2nd time playing-|
A|-----5--------2--------3--------5-(X16)-|----|---------------------------------------------|
E|--------------------------------3-------|----|---------------------------------------------|
pm..............................................

chorus:
e|----------------------------------------|----|--------------------------------|
B|----------------------------------------|----|--------------------------------|
G|-----7--------4--------5----------------|----|--------------------------------|
D|-----7-(X16)--4-(X16)--5-(X16)--5-------|(X2)|--intro comes in here-----------|
A|-----5--------2--------3--------5-(X16)-|----|--------------------------------|
E|--------------------------------3-------|----|--------------------------------|
verse 2: same as chorus
outro:
e|----10--------------10-------------------10--------------10----------------|
B|-------10-8----8-10----10-8----8-10-(X3)----10-8----10-8-10----------------|
G|------------11--------------11-------------------11------11----------------|
D|---------------------------------------------------------------------------|
A|---------------------------------------------------------------------------|
E|---------------------------------------------------------------------------|

| / slide up
| slide down
| h hammer-on
| p pull-off
| ~ vibrato
| + harmonic
| x Mute note
===============================================================================
-----------------------------------------------------------------
My Reply - The Ataris
-----------------------------------------------------------------
This tab is the author's work and represents their interpretation
of the song.

Written by: Kris Roe

Tabbed by: Rory Downham
Email: Voodoo_Squirrel@Hotmail.com

Tuning: Standard: (E A D G B e) use distortion
-----------------------------------------------------------------
Intro

Gtr1
e|----------------------------------------------
B|----15-----------------15---------------------
G|-------14-12-11--12-14-----14-12-11--12-14----
D|----------------------------------------------
A|----------------------------------------------
E|---------------------------------------------- Play 4 times

e|------------------------------------------------------
B|---15-15--------------15-----------------------------
G|---------12-12-11-11----12-12-12-11-11-14-14-11-11---
D|------------------------------------------------------
A|------------------------------------------------------
E|------------------------------------------------------ Play 4 times


Gtr2
e|-----|-----|-----|---------
B|-----|-----|-----|---------
G|--7--|--4--|--5--|---------
D|--7--|--4--|--5--|--5---7--
A|--5--|--2--|--3--|--5---7--
E|-----|-----|-----|--3---5-- Play twice (palm muted 1st time)

Verse:

Gtr2 (palm muted)
e|-----|-----|-----|-------
B|-----|-----|-----|-------
G|--7--|--4--|--5--|-------
D|--7--|--4--|--5--|--5----
A|--5--|--2--|--3--|--5----
E|-----|-----|-----|--3----

After that sequence,

Gtr2 plays (palm muted)... Gtr1 plays over the top...(four times)
e|-----|-----|-----|---------|--------------------------------------------
B|-----|-----|-----|---------|-----15----------------15-------------------
G|--7--|--4--|--5--|---------|-------14-12-11--12-14-----14-12-11--12-14--
D|--7--|--4--|--5--|--5---7--|--------------------------------------------
A|--5--|--2--|--3--|--5---7--|--------------------------------------------
E|-----|-----|-----|--3---5--|--------------------------------------------


Bridge:

e|--------|------------|--------|-------
B|--------|------------|--------|-------
G|-----7--|------------|-----7--|-------
D|--5--7--|--7---9-7---|--5--7--|--7----
A|--5--5--|--7---9-7---|--5--5--|--7----
E|--3-----|--5---7-5---|--3-----|--5---- Play twice


Chorus:

e|-----|-----|-----|------
B|-----|-----|-----|------
G|--7--|--4--|--5--|------
D|--7--|--4--|--5--|--5---
A|--5--|--2--|--3--|--5---
E|-----|-----|-----|--3---

e|-----|-----|-----|---------
B|-----|-----|-----|---------
G|--7--|--4--|--5--|---------
D|--7--|--4--|--5--|--5---7--
A|--5--|--2--|--3--|--5---7--
E|-----|-----|-----|--3---5--

(1:53):
Gtr2 plays...... Gtr1 plays.......(twice).
e|--------------------------------------------------------------
B|--------------------15-----------------15---------------------
G|--7--------------------14-12-11--12-14-----14-12-11--12-14----
D|--7-----------------------------------------------------------
A|--5-----------------------------------------------------------
E|--------------------------------------------------------------

Then Gtr2 plays......
e|-----|-----|-----|-----
B|-----|-----|-----|-----
G|--7--|--4--|--5--|-----
D|--7--|--4--|--5--|--5--
A|--5--|--2--|--3--|--5--
E|-----|-----|-----|--3--

e|-----|-----|-----|----------
B|-----|-----|-----|----------
G|--7--|--4--|--5--|----------
D|--7--|--4--|--5--|--5---7---
A|--5--|--2--|--3--|--5---7---
E|-----|-----|-----|--3---5---
(During this time Gtr1 plays the second riff of the intro)


Bridge:

e|--------|------------|--------|-------
B|--------|------------|--------|-------
G|-----7--|------------|-----7--|-------
D|--5--7--|--7---9-7---|--5--7--|--7----
A|--5--5--|--7---9-7---|--5--5--|--7----
E|--3-----|--5---7-5---|--3-----|--5---- Play twice
(Not intirely sure on lead part here, similar notes to other lead riffs)

Final chorus:

e|-----|-----|-----|------
B|-----|-----|-----|------
G|--7--|--4--|--5--|------
D|--7--|--4--|--5--|--5---
A|--5--|--2--|--3--|--5---
E|-----|-----|-----|--3--- Play 3 times, then....

e|-----|-----|-----|----------
B|-----|-----|-----|----------
G|--7--|--4--|--5--|----------
D|--7--|--4--|--5--|--5---7---
A|--5--|--2--|--3--|--5---7---
E|-----|-----|-----|--3---5---

Gtr2 ends on... Gtr1 (outro).......(three times)
e|-----------------------------------------------------------
B|--------------------15-----------------15------------------
G|--7--------------------14-12-11--12-14-----14-12-11--12-14-
D|--7--------------------------------------------------------
A|--5--------------------------------------------------------
E|-----------------------------------------------------------

Gtr1 (outro continued).......
e|-----------------------------
B|--15------------------15-----
G|-----14-12-11--14-11--11-----
D|-----------------------------
A|-----------------------------
E|-----------------------------