Ataris — My So Called Life

На этой странице Вы можете ознакомиться с 2 версиями подбора аккордов для гитары к песне "My So Called Life" группы (исполнителя) "Ataris".

band - the ataris
song - my so-called life
album - look fowrward to failure
tebbed by - conor o bassist for dropped as kids - www.droppedaskids.com

intro 2x (only hold notes the first time)
-------------------------------------------------------------------
--------3-2-0------------------------------------------------------
--3hold------------------------------------------------------------
--------------1hold-3hold------------------------------------------

verse
-------------------------------------------------------------------
-------------------------------------------------------------------
--3333333333333333---------------------------------3333333333333333
------------------1111111111111111-3333333333333333----------------

verse cont'd
-------------------------------------------------------------------
-------------------------------------------------------------------
--3333333333333333---------------------------------3333333333333333
------------------1111111111111111-3333333311111111----------------

chorus
-------------------------------------------------------------------
-------------------------------------------------------------------
--0000000000000000----------------33333333333333333----------------
------------------1111111111111111-----------------3333333333333333

play intro again

da na na part is the same as verse

last verse
-------------------------------------------------------------------
-------------------------------------------------------------------
--3-let-ring---------------------------------------3333333333333333
------------------------------33333333311111111--------------------
staring at your picture... i'll see you in another 20 years

outro
-----------------------------------|-------------------------------
-----------------------------------|-------------------------------
------------------3333333333333333-|-----------------333-222-000000
--3333333311111111-----------------|3333333311111111---------------
2x i'll see you in another 20 yeeeeaaaarrrs

A------------------3-let ring----------
E-1111111133333333---------------------
Yeah this is easily my favorite Ataris song, but I noticed your site didn’t have
the tabs so I decided to do it for you. I’m pretty sure its 100% correct, but if
you get lost just listen through the song a couple times to get the rhythm down,
and you should be OK. If you have any questions about the tab you can email me
at nikko42@chorus.net

key
~ let ring
x mute (not plam mute)
Intro
Gtr. 1
e|----------------------------------------------------------|
B|----------------------------------------------------------|
G|--5~~~--5-4--------------5-5-5-5-5-5-5-5-5-5-5-5-5-5-5-5--|
D|--5~~~--5-4-2-3~~~-5~~~--5-5-5-5-5-5-5-5-5-5-5-5-5-5-5-5--|
A|--3~~~--3-2-2-3~~~-5~~~--3-3-3-3-3-3-3-3-3-3-3-3-3-3-3-3--|
E|------------0-1~~~-3~~~-----------------------------------|

e|-----------------------------------|
B|-----------------------------------|
G|-----------------------------------|
D|--3-3-3-3-3-3-3-3-5-5-5-5-5-5-5-5--|
A|--3-3-3-3-3-3-3-3-5-5-5-5-5-5-5-5--|
E|--1-1-1-1-1-1-1-1-3-3-3-3-3-3-3-3--|

Guitar 2
e|------------------------------------------------|
B|------------------------------------------------|
G|--7-7-7-7-7-7-7-7-7-7-7-7-7-7-7-7-6-------------|
D|--x-x-x-x-x-x-x-x-x-x-x-x-x-x-x-7-6-4-5~-~-~-7--|
A|--5-5-5-5-5-5-5-5-5-5-5-5-5-5-5-5-4-4-5~-~-~-7--|
E|------------------------------------2-3~-~-~-5--|

Guitar 1 Verse 1+2
e|-------------------------------------------------------------------|
B|-------------------------------------------------------------------|
G|--5-5-5-5-5-5-5-5---------------------------------5-5-5-5-5-5-5-5--|
D|--5-5-5-5-5-5-5-5-3-3-3-3-3-3-3-3-5-5-5-5-5-5-5-5-5-5-5-5-5-5-5-5--|
A|--3-3-3-3-3-3-3-3-3-3-3-3-3-3-3-3-5-5-5-5-5-5-5-5-3-3-3-3-3-3-3-3--|
E|------------------1-1-1-1-1-1-1-1-3-3-3-3-3-3-3-3------------------|


e|-------------------------------------------------------------------|
B|-------------------------------------------------------------------|
G|--5-5-5-5-5-5-5-5---------------------------------5-5-5-5-5-5-5-5--|
D|--5-5-5-5-5-5-5-5-3-3-3-3-3-3-3-3-5-5-5-5-3-3-3-3-5-5-5-5-5-5-5-5--|
A|--3-3-3-3-3-3-3-3-3-3-3-3-3-3-3-3-5-5-5-5-3-3-3-3-3-3-3-3-3-3-3-3--|
E|------------------1-1-1-1-1-1-1-1-3-3-3-3-1-1-1-1------------------|

Part 2
e|-------------------------------------------------------------------|
B|-------------------------------------------------------------------|
G|----------------------------------5-5-5-5-5-5-5-5------------------|
D|--7-7-7-7-7-7-7-7-3-3-3-3-3-3-3-3-5-5-5-5-5-5-5-5-5-5-5-5-5-5-5-5--|
A|--7-7-7-7-7-7-7-7-3-3-3-3-3-3-3-3-3-3-3-3-3-3-3-3-5-5-5-5-5-5-5-5--|
E|--5-5-5-5-5-5-5-5-1-1-1-1-1-1-1-1-----------------3-3-3-3-3-3-3-3--|

e|-------------------------------------------------------------------|
B|-------------------------------------------------------------------|
G|-------------------------------------------------------------------|
D|--7-7-7-7-7-7-7-7-3-3-3-3-3-3-3-3--5~-~-~-~-~-~-~-5-~-~-~------|
A|--7-7-7-7-7-7-7-7-3-3-3-3-3-3-3-3--5~-~-~-~-~-~-~-5-~-~-~------|
E|--5-5-5-5-5-5-5-5-1-1-1-1-1-1-1-1--3~-~-~-~-~-~-~-3-~-~-~------|

CHORUS
Guitar 1
e|-------------------------------------------------------------------|
B|-------------------------------------------------------------------|
G|--5-5-5-5-5-5-5-5---------------------------------5-5-5-5-5-5-5-5--|
D|--5-5-5-5-5-5-5-5-3-3-3-3-3-3-3-3-5-5-5-5-5-5-5-5-5-5-5-5-5-5-5-5--|
A|--3-3-3-3-3-3-3-3-3-3-3-3-3-3-3-3-5-5-5-5-5-5-5-5-3-3-3-3-3-3-3-3--|
E|------------------1-1-1-1-1-1-1-1-3-3-3-3-3-3-3-3------------------|

e|-------------------------------------------------------------------|
B|-------------------------------------------------------------------|
G|--5-5-5-5-5-5-5-5---------------------------------5-5-5-5-5-5-5-5--|
D|--5-5-5-5-5-5-5-5-3-3-3-3-3-3-3-3-5-5-5-5-3-3-3-3-5-5-5-5-5-5-5-5--|
A|--3-3-3-3-3-3-3-3-3-3-3-3-3-3-3-3-5-5-5-5-3-3-3-3-3-3-3-3-3-3-3-3--|
E|------------------1-1-1-1-1-1-1-1-3-3-3-3-1-1-1-1------------------|

3rd verse

B|-------------------------------------------------------------------|
G|--7---------------7---------------7--------------------------------|
D|----7---------------7---------------7------------------------------|
A|------5---------------5---------------5----------------------------|
E|-------------------------------------------------------------------|

e|-------------------------------------------------------------------|
B|--------------------------------------------------------7----------|
G|--7---------------7---------------7---------------7---7------------|
D|----7---------------7---------------7---------------7--------------|
A|------5---------------5---------------5----------------------------|
E|-------------------------------------------------------------------|

VERSE 3 part 2
Guitar 1
e|-------------------------------------------------------------------|
B|-------------------------------------------------------------------|
G|------------------5-5-5-5-5-5-5-5-----------------5----5-5-5-------|
D|--5-5-5-5-3-3-3-3-5-5-5-5-5-5-5-5-5-5-5-5-3-3-3-3-5----5-5-5-------|
A|--5-5-5-5-3-3-3-3-3-3-3-3-3-3-3-3-5-5-5-5-3-3-3-3-3----3-3-3-------|
E|--3-3-3-3-1-1-1-1-----------------3-3-3-3-1-1-1-1------------------|

e|---------------------------------------|
B|---------------------------------------|
G|---------------------------------------|
D|--2-2-2-2-2-2-3-3-3-3-3-3-5-5-5-5-5-5--|
A|--2-2-2-2-2-2-3-3-3-3-3-3-5-5-5-5-5-5--|
E|--0-0-0-0-0-0-1-1-1-1-1-1-3-3-3-3-3-3--|

e|----------------------------------------------------------------5--|
B|---------------------------------------------------------------5---|
G|--5-5-5-4-4-4-------------------------------------------------5----|
D|--5-5-5-4-4-4-7-7-7-5-5-5-3-3-3-3-3-3-5-5-5-5-5-5------------5-----|
A|--3-3-3-2-2-2-7-7-7-5-5-5-3-3-3-3-3-3-5-5-5-5-5-5-----------3------|
E|--------------5-5-5-3-3-3-1-1-1-1-1-1-3-3-3-3-3-3------------------|

OUTRO
Guitar 2
e|-----------------------|
B|-----------------------|
G|-----------------------|
D|--10-------------9-10--|
A|-----10-10-11-10-------|
E|-----------------------|