Ataris — San Dimas High School Football Rules

На этой странице Вы можете ознакомиться с 3 версиями подбора аккордов для гитары к песне "San Dimas High School Football Rules" группы (исполнителя) "Ataris".

Standard Tuning - (E A D G)

This is one of my favorite songs. Its alot of fun to
play and anyone who knows the Ataris has heard this one.
Hopefully I tabbed it right.

Intro:

E:----------00000000-11111111-33333333-
A:-33333333----------------------------
D:-------------------------------------
G:-------------------------------------

E:-------------------------------------
A:-33333333----------------------------
D:----------22222222-33333333-55555555-
G:-------------------------------------

Verse:

E:----------00000000-11111111-33333333-
A:-33333333----------------------------
D:-------------------------------------
G:-------------------------------------

E:-----------------------------------------
A:-33333333--------------------------------
D:----------22222222-33333333-55555555-66--
G:-----------------------------------------

Chorus:

E:----------11111111----------33333333-
A:-00000000----------33333333----------
D:-------------------------------------
G:-------------------------------------

Bridge:

E:-11111111-33333333-----333-----111-3---
A:-------------------333-----000-------3-
D:---------------------------------------
G:---------------------------------------

Add-In:

E:-3-3-3333-
A:----------
D:----------
G:----------

Order:

Intro x1
Verse x1
Chorus x2
Bridge x1
Intro x1
Verse x1
Chorus x2
Bridge x1
There's a break here for the guitar solo, then
Add-In x1
2nd half of Intro x4
Ok.. Some of these tabs are close.. but wrong... Mines right... 


C, Em, F, G x 2 (a lead guitar.. doing a 3 note run.. Figure it out yourself)


C Em
Last night I had a dream

F
That we went to disney land

G
Went on all the rides

C
Didn't hafta wait in line

Em
I took you to your house

F
where we stared up at the stars

G
I listened to your heart beat

Am
as I held you in my arms

F
We hung out at the rainbow

C
where we drank til half past 2

G
nothing could go wrong

Am
anytime that I'm with you

F
Like crashing a hotel room

C
or leading up to that first kiss

G
or searching for a high school


that you know doesn't exist


F G C
These are the things that make me free



Ok.. here's where it sounds wierd.. Everyone else has C going to G.. C to E minor...
but he's also doing a walkdown from the to the A minor.. So one guitar is playing
an E minor.. and the other is playing a C/B chord..

C/B
Em Am G F
I feel like I'm stuck in Stand By me

G
This night was too good to be true


C... Em... F... G x 2


C Em
Today I woke up alone

F
wishing you were here with me

G
I want us to be something


that we'll probably never be

C Em
Today you called me up

F
Said you'd see me at our show

G
But now I'm stuck debating

Am
If I even wanna go

F C
Whitney don't you understand each word I say is true

G Am
I just want you to know I have a major crush on you

F C
I'd take you to Las Vegas and do the things you wanna do

G
I'd even have Wayne Newton Dedicate a song to you

F G
I only wish that this could be

C/B
C Em Am G F
Dump your Boyfriend and go out with me

G
I swear I'd treat you like a queen


C Em F G til the end...

Any question.. leave them on here as Comments.. or talk to me on AIM.. EyeAmCool09.. Later on
This sounds fairly good when i play along, so it cant be all bad...

Intro:

e ----------------------------
b ----------------------------
g -5--4--0--5--4--0--5--4--0--
d -5--5--5--5--5--5--5--5--5--
a -3--3--3--3--3--3--3--3--3--
E ----------------------------

which is played over these chords:

e --------------
b --------------
g -5--9--10-----
d -5--9--10--5--
a -3--7--8---5--
E -----------3--

Verse:

e -----------------------------------------
b -----------------------------------------
g -5-5-------------------------------------
d -5-5-(x14)-2-2-------3-3-------5-5-------
a -3-3-------2-2-(x14)-3-3-(x14)-5-5-(x14)-
E -----------0-0-------1-1-------3-3-------
* * * *

Then the second part of the verse goes:

e -----------------------------------------
b -----------------------------------------
g -5-5-------------------------------------
d -5-5-(x14)-2-2-------3-3-------5-------6-
a -3-3-------2-2-(x14)-3-3-(x14)-5-(x13)-6-
E -----------0-0-------1-1-------3-------4-
* * *


On the second part of the first verse, these octaves are played over it:

e ------------
b ------------ I cant be bothered doing them all, but they
g -5--4--5--5- are repeated
d -x--x--x--x-
a -3--2--2--3-
E ------------

Chorus:

e -------------------------------------
b -------------------------------------
g -----------------5-------4-------5-5-
d -7-------3-------5-(x16)-5-(x12)-5-5-
a -7-(x16)-3-(x16)-3-------2-------3-3-
E -5-------1---------------------------

On the second part of the chorus:

e --------------------------------
b --------------------------------
g -----------------5--10--9--7----
d -7-------3-------x--x---x--x----
a -7-(x16)-3-(x16)-3--8---7--5----
E -5-------1----------------------

e ------------------------------------------
b ------------------------------------------
g ---------------------5--4--2--------------
d -3-3-------5-5-------5--5--2--5--3------5-
a -3-3-(x14)-5-5-(x14)-3--2--0--5--3-(x8)-5-
E -1-1-------3-3----------------3--1------3-

Then the Interlude thingy:

e ----------
b ----------
g -5--4--0--
d -5--5--5--
a ----------
E ----------

This is repeated over the below chords.

e --------------
b --------------
g -5--9--10-----
d -5--9--10--5--
a -3--7--8---5--
E -----------3--

Then the distortion kicks in and these octaves are played over it:

e -----------------------------------
b -----------------------------------
g -5--9--10--7--4--5--9--10--12---4--
d -x--x--x---x--x--x--x--x---x----x--
a -3--7--8---5--2--3--7--8---10---2--
E -----------------------------------

After the above octaves have been played once, the below octaves play over them.

e --------------------------------
b --------------------------------
g -12--12--10--10--9------7--9--7-
d -x---x---x---x---x-(x3)-x--x--x-
a -10--10--8---8---7------5--7--5-
E --------------------------------

These are played once, then the first set of octaves are played over the chords for
the intro, and thats the song.

I know the last part is tricky to understand, but listen to the song and see wher
everything fits in, it sounds pretty right, especially when you play with the song.
Even without the song, it sounds better than the other versions on here so...