Ataris — So Long Astoria

На этой странице Вы можете ознакомиться с 3 версиями подбора аккордов для гитары к песне "So Long Astoria" группы (исполнителя) "Ataris".

-------------------------------------------------------------------------------
SO LONG, ASRORIA- ATARIS
-------------------------------------------------------------------------------
Tabbed By : keepitpunk
e-mail: liambussey88@hotmail.com

| X dead note

Tuning:EADG

INTRO
G|----------------------------------------------------------------|
D|----------------------------------------------------------------|
A|-5-5-5-5-5-5-5-5------------------------------------------------|
E|-----------------3-3-3-3-3-3-3-3-7-7-7-7-7-7-7-7-5-5-5-5-5-5-5-5|

G|----------------------------------------------------------------|
D|----------------------------------------------------------------|
A|-5-5-5-5-5-5-5-5------------------------------------------------|
E|-----------------3-3-3-3-3-3-3-3-7-7-7-7-7-7-7-7-7-7-7-7-5-5-5-5|

VERSE (X2)
G|----------------------------------------------------------------|
D|----------------------------------------------------------------|
A|-5-5-5-5-5-5-5-5------------------------------------------------|
E|-----------------3-3-3-3-3-3-3-3-7-7-7-7-7-7-7-7-5-5-5-5-5-5-5-5|

CHORUS 1 (X2)
G|----------------------------------------------------------------|
D|----------------------------------------------------------------|
A|----------------------------------------------------------------|
E|-0-0-0-0-2-2-2-2-3-3-3-3-3-3-3-3-7-7-7-7-7-7-7-7-5-5-5-5-5-5-5-5|


CHORUS 2
G|--------------------------------|
D|--------------------------------|
A|--------------------------------|
E|-0-0-2-2-3-3-3-3-5-5-5-5-7-7-7-7|


INTERLUDE
G|----------------------------------------------------------------|
D|----------------------------------------------------------------|
A|-5-5-5-5-5-5-5-5------------------------------------------------|
E|-----------------3-3-3-3-3-3-3-3-7-7-7-7-7-7-7-7-6-6-6-6-5-5-5-5|

VERSE (X2)
G|----------------------------------------------------------------|
D|----------------------------------------------------------------|
A|-5-5-5-5-5-5-5-5------------------------------------------------|
E|-----------------3-3-3-3-3-3-3-3-7-7-7-7-7-7-7-7-5-5-5-5-5-5-5-5|

CHORUS 1 (X2)
G|----------------------------------------------------------------|
D|----------------------------------------------------------------|
A|----------------------------------------------------------------|
E|-0-0-0-0-2-2-2-2-3-3-3-3-3-3-3-3-7-7-7-7-7-7-7-7-5-5-5-5-5-5-5-5|

CHORUS 2
G|--------------------------------|
D|--------------------------------|
A|--------------------------------|
E|-0-0-2-2-3-3-3-3-5-5-5-5-7-7-7-7

INTERLUDE
G|----------------------------------------------------------------|
D|----------------------------------------------------------------|
A|-5-5-5-5-5-5-5-5-5-5-5-5-5-5-5-5-5-5-5-5-5-5-5-5----------------|
E|-------------------------------------------------7-7-7-7-5-5-5-5|

VERSE (X2)
G|----------------------------------------------------------------|
D|----------------------------------------------------------------|
A|-5-5-5-5-5-5-5-5------------------------------------------------|
E|-----------------3-3-3-3-3-3-3-3-7-7-7-7-7-7-7-7-5-5-5-5-5-5-5-5|

G|----------------------------------------------------------------|
D|----------------------------------------------------------------|
A|-5-5-5-5-5-5-5-5-5-5-5-5-5-5-5-5--------------------------------|
E|---------------------------------7-7-7-7-7-7-7-7-5-5-5-5-5-5-5-5|

OUTRO
G|----------------------------------------------------------------|
D|----------------------------------------------------------------|
A|-5-5-5-5-5-5-5-5------------------------------------------------|
E|-----------------3-3-3-3-3-3-3-3-7-7-7-7-7-7-7-7-5-5-5-5-5-5-5-5|

G|----------------------|
D|----------------------|
A|-5-5-XXX--------------|
E|---------3-3-XXX-5-5-5|

THIS AS GOOD AS I CAN MAKE IT SO IF YOU HAVE ANY CORRECTIONS PLEASE TELL ME AND
DONT KEEP IT TO YOURSELF, OK?
===============================================================================
Ataris - So Long, Astoria 
By:Andrew Mcshan (Guitarguyx182@aol.com)

this is my favorite song off their new album, which is titled
So Long, Astoria : )~

Intro
(Guitar 1)
|---------------------------------------------------------------------------|
|---------------------------------------------------------------------------|
|--7-7-7-7-7-7-7-7----------------------------------------------------------|
|--7-7-7-7-7-7-7-7-5-5-5-5-5-5-5-5-9-9-9-9-9-9-9-9-7-7-7-7-7-7-7-7-7-7-7-7--|
|--5-5-5-5-5-5-5-5-5-5-5-5-5-5-5-5-9-9-9-9-9-9-9-9-7-7-7-7-7-7-7-7-7-7-7-7--|
|------------------3-3-3-3-3-3-3-3-7-7-7-7-7-7-7-7-5-5-5-5-5-5-5-5-5-5-5-5--|
(Guitar 2)
|---------------------------------------------------------------------------|
|---------------------------------------------------------------------------|
|--7---7---7---7---6---6---6---6---7---7---7---7---9---9---9---9------------|
|----7---7---7---7---7---7---7---7---7---7---7---7---7---7---7---7----------|
|---------------------------------------------------------------------------|
|---------------------------------------------------------------------------|

|---------------------------------------------------------------------------|
|---------------------------------------------------------------------------|
|-----------------------------------------------------------6---------------|
|--4-5-7-----4-5-7----4-5-7----7-6-4---4-5-7--4-5-7--4-5-7--7---------------|
|------------------------------------7--------------------------------------|
|---------------------------------------------------------------------------|

Verse
(Guitar 1)
|---------------------------------------------------------------------------|
|---------------------------------------------------------------------------|
|--7-7-7-7-7-7-7-7----------------------------------------------------------|
|--7-7-7-7-7-7-7-7-5-5-5-5-5-5-5-5-9-9-9-9-9-9-9-9-7-7-7-7-7-7-7-7-7-7-7-7--|
|--5-5-5-5-5-5-5-5-5-5-5-5-5-5-5-5-9-9-9-9-9-9-9-9-7-7-7-7-7-7-7-7-7-7-7-7--|
|------------------3-3-3-3-3-3-3-3-7-7-7-7-7-7-7-7-5-5-5-5-5-5-5-5-5-5-5-5--|
(Guitar 2)
|------------------------------------------------|
|------------------------------------------------|
|--7-7-7-7-7-7-7-7-7/6--7-7-7-7-7-7/6------------|
|--x-x-x-x-x-x-x-x-x/x--x-x-x-x-x-x/x------------|
|--5-5-5-5-5-5-5-5-5/4--5-5-5-5-5-5/4------------|
|------------------------------------------------|

Chorus
(Guitar 1)
|--------------------------------------------------------------------------|
|--------------------------------------------------------------------------|
|--9-9-9-------------4-4-4-4-9-9-9---------------------4-4-4-9-9-9---------|
|--9-9-9-4-4-4-5-5-5-4-4-4-4-9-9-9---2-2-2-4-4-4-5-5-5-4-4-4-9-9-9-2-2-5-7-|
|--7-7-7-4-4-4-5-5-5-2-2-2-2-7-7-7---2-2-2-4-4-4-5-5-5-2-2-2-7-7-7-2-2-5-7-|
|--------2-2-2-3-3-3-----------------0-0-0-2-2-2-3-3-3-------------0-0-3-5-|
(Guitar 2)
|---------------------------------------------------------|
|---------------------------------------------------------|
|--7-7-7-9-9-9--11-11-11-7-7-7-7-9-9-9-9-11-11-11-11------|
|--x-x-x-x-x-x--x--x--x--x-x-x-x-x-x-x-x-x--x--x--x-------|
|--5-5-5-7-7-7--9--9--9--5-5-5-5-7-7-7-7-9--9--9--9-------|
|---------------------------------------------------------|

Bridge
(Guitar 1)
|---------------------------------------------------------|
|---------------------------------------------------------|
|--7-7-7-7-7-7-7-6-6-6-6-6--------------------------------|
|--7-7-7-7-7-7-7-6-6-6-6-6-9-9-9-9-9-7-7-7-7-7-7----------|
|--5-5-5-5-5-5-5-4-4-4-4-4-9-9-9-9-9-7-7-7-7-7-7----------|
|--------------------------7-7-7-7-7-5-5-5-5-5-5----------|
(Guitar 2)
|---------------------------------------------------------|
|---------------------------------------------------------|
|--7-7-7-7-7-7-7/9/6-6-6-6-6-6-6/7/4-4-4-4-4-4-4/6--------|
|--x-x-x-x-x-x-x-x-x-x-x-x-x-x-x-x-x-x-x-x-x-x-x-x--------|
|--5-5-5-5-5-5-5/7/4-4-4-4-4-4-4/5/2-2-2-2-2-2-2/4--------|
|---------------------------------------------------------|

Outro
(Guitar 1)
|---------------------------------------------------------------------------|
|---------------------------------------------------------------------------|
|--7-7-7-7-7-7-6-6-6-6-6-6----------------------9-9-9-9-9-9-----------------|
|--7-7-7-7-7-7-6-6-6-6-6-6-9-9-9-9-9--7-7-7-7-7-9-9-9-9-9-9-7-7-7-7-7-7-7-7-|
|--5-5-5-5-5-5-4-4-4-4-4-4-9-9-9-9-9--7-7-7-7-7-7-7-7-7-7-7-7-7-7-7-7-7-7-7-|
|--------------------------7-7-7-7-7--5-5-5-5-5-------------5-5-5-5-5-5-5-5-|

|---------------------------------------------------------------------------|
|---------------------------------------------------------------------------|
|--7-7-7-7-7-7-6-6-6-6-6-6-4-4-4-4-4-4--------------------------------------|
|--7-7-7-7-7-7-6-6-6-6-6-6-4-4-4-4-4-4-7-7-7-7-7-7-5-5-5-5-5-5-5-5-5-5-5-5--|
|--5-5-5-5-5-5-4-4-4-4-4-4-2-2-2-2-2-2-7-7-7-7-7-7-5-5-5-5-5-5-5-5-5-5-5-5--|
|--------------------------------------5-5-5-5-5-5-3-3-3-3-3-3-3-3-3-3-3-3--|
(Guitar 2)
|-----------------------------------------------------------------|
|-----------------------------------------------------------------|
|--7-7-7-7-7-7-6-6-6-6-6-4-4-4-4-4-4-4----------------------------|
|--x-x-x-x-x-x-x-x-x-x-x-x-x-x-x-x-x-x-7-7-7-7-7-7-7-7-7-7--------|
|--5-5-5-5-5-5-4-4-4-4-4-2-2-2-2-2-2-2-7-7-7-7-7-7-7-7-7-7--------|
|--------------------------------------5-5-5-5-5-5-5-5-5-5--------|

|-----------------------------------------------------------------|
|-----------------------------------------------------------------|
|--7-7-7-7-7-7-6-6-6-6-6-4-4-4-4-4-4-4--------7-7-6-6-7-7-6-6-7-7-|
|--x-x-x-x-x-x-x-x-x-x-x-x-x-x-x-x-x-x-7-7-7--x-x-x-x-x-x-x-x-x-x-|
|--5-5-5-5-5-5-4-4-4-4-4-2-2-2-2-2-2-2-7-7-7--5-5-4-4-5-5-4-4-5-5-|
|--------------------------------------5-5-5----------------------|
#----------------------------------PLEASE NOTE---------------------------------#
#This file is the author's own work and represents their interpretation of the-#
#song. You may only use this file for private study, scholarship, or research.-#
#------------------------------------------------------------------------------#

Ataris - So Long, Astoria

Intro
Guitar 1
|---------------------------------------------------------------------------|
|---------------------------------------------------------------------------|
|--7-------------------------------4---------------2------------------------|
|--7---------------5---------------4---------------2------------------------|
|--5---------------5---------------2---------------0------------------------|
|------------------3--------------------------------------------------------|

Guitar 2
|---------------------------------------------------------------------------|
|---------------------------------------------------------------------------|
|--7---7---7---7---6---6---6---6---7---7---7---7---9---9---9---9------------|
|----7---7---7---7---7---7---7---7---7---7---7---7---7---7---7---7----------|
|---------------------------------------------------------------------------|
|---------------------------------------------------------------------------|

|---------------------------------------------------------------------------|
|---------------------------------------------------------------------------|
|------6-7------6-7------6-7---7---7---6-----------6-7-----6-7-----6-7---7~-|
|--5-7------5-7------5-7---------7---7---7-----5-7-----5-7-----5-7----------|
|---------------------------------------------------------------------------|
|---------------------------------------------------------------------------|

Verse
Guitar 1
|---------------------------------------------------------------------------|
|---------------------------------------------------------------------------|
|--7--7--7--7--7--7--7--7--7--7--7--7--7--7--7--7--6------------------------|
|---------------------------------------------------------------------------|
|--5--5--5--5--5--5--5--5--5--5--5--5--5--5--5--5--4------------------------|
|---------------------------------------------------------------------------|

|---------------------------------------------------------------------------|
|---------------------------------------------------------------------------|
|--7-------------------------------4---------------2------------------------|
|--7---------------5---------------4---------------2------------------------|
|--5---------------5---------------2---------------0------------------------|
|------------------3--------------------------------------------------------|

Chorus
Guitar 1
|---------------------------------------------------------------------------|
|---------------------------------------------------------------------------|
|-------------------------4-4-4-4---2-2-2-2---------------------------------|
|--2-2----4-4----5-5------4-4-4-4---2-2-2-2---------------------------------|
|--2-2----4-4----5-5------2-2-2-2---0-0-0-0---------------------------------|
|--0-0----2-2----3-3--------------------------------------------------------|

|---------------------------------------------------------------------------|
|---------------------------------------------------------------------------|
|-------------------------4-4-4-4---2-2-2-2---------------------------------|
|--2-2----4-4----5-5------4-4-4-4---2-2-2-2---2-2-2-2----5----7-------------|
|--2-2----4-4----5-5------2-2-2-2---0-0-0-0---2-2-2-2----5----7-------------|
|--0-0----2-2----3-3--------------------------0-0-0-0----3----5-------------|

Guitar 2
|---------------------------------------------------------------------------|
|---------------------------------------------------------------------------|
|--7------9------11-------7---------9---------11----------------------------|
|---------------------------------------------------------------------------|
|--5------7------9--------5---------7---------9-----------------------------|
|---------------------------------------------------------------------------|

Bridge
Guitar 1
|---------------------------------------------------------------------------|
|---------------------------------------------------------------------------|
|--7---------------7---------------4--------------2-------------------------|
|--7---------------7---------------4--------------2-------------------------|
|--5---------------4---------------2--------------0-------------------------|
|---------------------------------------------------------------------------|

Guitar 2
|---------------------------------------------------------------------------|
|---------------------------------------------------------------------------|
|--7-----------7/9/6-----------6/7/4----------4/6/2-------------------------|
|---------------------------------------------------------------------------|
|--5-----------5/7/4-----------4/5/2----------2/4/0-------------------------|
|---------------------------------------------------------------------------|

Outro
Guitar 1
|---------------------------------------------------------------------------|
|---------------------------------------------------------------------------|
|--7-----------7-----------4-----------2----------------------2-------------|
|--7-----------7-----------4-----------2----------2-----------2-------------|X3
|--5-----------4-----------2-----------0----------2-----------0-------------|
|-------------------------------------------------0-------------------------|

|---------------------------------------------------------------------------|
|---------------------------------------------------------------------------|
|--7-----------7-----------4-----------2------------------------------------|
|--7-----------7-----------4-----------2----------5-5---5-5---5---5---------|X1
|--5-----------4-----------2-----------0----------5-5---5-5---5---5---------|
|-------------------------------------------------3-3---3-3---3---3---------|

Guitar 2
|---------------------------------------------------------------------------|
|---------------------------------------------------------------------------|
|--7-----------6-----------4-----------2------------------------------------|
|---------------------------------------------------------------------------|X3
|--5-----------4-----------2-----------0------------------------------------|
|---------------------------------------------------------------------------|

|---------------------------------------------------------------------------|
|---------------------------------------------------------------------------|
|--7-----------6-----------4-----------2----------7-6---7-6---7---7---------|
|---------------------------------------------------------------------------|X1
|--5-----------4-----------2-----------0----------5-4---5-4---5---5---------|
|---------------------------------------------------------------------------|

================================================================================