Ataris — Takeoffs And Landings

На этой странице Вы можете ознакомиться с 2 версиями подбора аккордов для гитары к песне "Takeoffs And Landings" группы (исполнителя) "Ataris".

Ataris - Takeoffs And Landings 
By:Andrew - Guitarguyx182@aol.com

I thought the verson here was alright, but some of it was wrong...

Intro
e|---------------------------------------------------------------------------|
B|---------------------------------------------------------------------------|
G|--9-9-9-9-11-11-11-13-13-13-9-9-9-13-13-11-11-11/-13/14-/-9-9-14-14-14-14--|
D|--x-x-x-x-x--x--x--x--x--x--x-x-x-x--x--x--x---x--x---x---x-x-x--x--x--x---|
A|--7-7-7-7-9--9--9--11-11-11-7-7-7-11-11-9--9---9/-11/12/--7-7-12-12-12-12--|
E|---------------------------------------------------------------------------|

e|-------------------------------------------------------------------|
B|-------------------------------------------------------------------|
G|--13-13-13-11-11-11-9-9-14/13/14-11-11-11/13/14/16-16--/9-9-9-9----|
D|--x--x--x--x--x--x--x-x-x--x--x--x--x--x--x--x--x--x----x-x-x-x----|
A|--11-11-11-9--9--9--7-7-12/11/12-9--9--9-/11/12/14-14--/7-7-7-7----|
E|-------------------------------------------------------------------|

Verse
e|---------------------------------------------------------|
B|---------------------------------------------------------|
G|-6-6-6-6-6-6-------------4-4-4-4-4-4---------------------|
D|-6-6-6-6-6-6-7-7-7-7-7-7-4-4-4-4-4-4-7-7-7-7-7-7-7-------|
A|-4-4-4-4-4-4-7-7-7-7-7-7-2-2-2-2-2-2-7-7-7-7-7-7-7-------|
E|-------------5-5-5-5-5-5-------------5-5-5-5-5-5-5-------|
Pm..................................................

Pre-Chorus
e|----------------------------------------------------------|
B|----------------------------------------------------------|
G|--------------------------7-------------------------------|
D|-----4---6---7-----2------7-----7-------4---6----7--------|
A|-----4---6---7-----2------5-----7-------4---6----7--------|
E|-----2---4---5-----0------------5-------2---4----5--------|

Chorus
e|----------------------------|
B|----------------------------|
G|-----9-----6-----4----------|
D|-----9-----6-----4-----7----|
A|-----7-----4-----2-----7----|
E|-----------------------5----|

Bridge
e|---------------------------------------------------------------------------|
B|---------------------------------------------------------------------------|
G|--11-11----13-/-11-/-9---14-14---13-/-11-/-9--------16--14--13----11/13/11-|
D|--x--x-----x----x----x---x--x----x----x----x--------x---x---x-----x--x--x--|
A|--9--9-----11-/-9--/-7---12-12---11-/-9--/-7--------14--12--11----9-/11/9--|
E|---------------------------------------------------------------------------|

e|---------------------------------------------------------------------------|
B|---------------------------------------------------------------------------|
G|-11-11--13-/-11-/-9----14-14---13-/-11-------------------------------------|
D|-x--x---x----x----x----x--x----x----x--------------------------------------|
A|-9--9---11-/-9--/-7----12-12---11-/-9--------------------------------------|
E|---------------------------------------------------------------------------|
Band:The Ataris
Song:Takeoffs and landings
Tabber:Sam smith

This is a great song by ataris, fairly straight forward but still an amazing song.


Intro (guitar 1)
e|---------------------------------------------------------------------------|
B|---------------------------------------------------------------------------|
G|------------2--------------------------------------------------------------|
D|-2~~~~4--6--2~~~~7--6---4--4-4-6-7-6-2~~~~9-9-9-9-9-9-9-9------------------|
A|---------------------------------------------------------------------------|
E|---------------------------------------------------------------------------|

Guitar 2
e|---------------------------------------------------------------------------|
B|---------------------------------------------------------------------------|
G|-------------------------------2-2-2-x-2-2-2-x-2-2-2-x-2-2-2-x-4-4-4-x-4-4-|
D|-2-2-x-2-2-2-x-2-2-2-x-2-2-2-x-2-2-2-x-2-2-2-x-2-2-2-x-2-2-2-x-4-4-4-x-4-4-|
A|-2-2-x-2-2-2-x-2-2-2-x-2-2-2-x-0-0-0-x-0-0-0-x-0-0-0-x-0-0-0-x-2-2-2-x-2-2-|
E|-0-0-x-0-0-0-x-0-0-0-x-0-0-0-x---------------------------------------------|

e|---------------------------------------------------------------------------|
B|-------------------12-12-12-12-12-12-12-12-10-10-10-10-10-10-10-10---------|
G|-4-x-4-4-4-x-4-4-4-x--x--x--x--x--x--x--x--x--x--x--x--x--x--x--x----------|
D|-4-x-4-4-4-x-4-4-4-9--9--9--9--9--9--9--9--7--7--7--7--7--7--7--7----------|
A|-2-x-2-2-2-x-2-2-2---------------------------------------------------------|
E|---------------------------------------------------------------------------|

Then (Guitar 1)
e|---------------------------------------------------------------------------|
B|-9--7--5---10--9--10---7--9--10--12--12--10--------------------------------|
G|-x--x--x---x---x--x----x--x--x---x---x---x---------------------------------|
D|-6--4--2---7---6--7----4--6--7---9---9---7---------------------------------|
A|---------------------------------------------------------------------------|
E|---------------------------------------------------------------------------|

Guitar 2
e|---------------------------------------------------------------------------|
B|---------------------------------------------------------------------------|
G|-------------------------------2-2-2-x-2-2-2-x-2-2-2-x-2-2-2-x-4-4-4-x-4-4-|
D|-2-2-x-2-2-2-x-2-2-2-x-2-2-2-x-2-2-2-x-2-2-2-x-2-2-2-x-2-2-2-x-4-4-4-x-4-4-|
A|-2-2-x-2-2-2-x-2-2-2-x-2-2-2-x-0-0-0-x-0-0-0-x-0-0-0-x-0-0-0-x-2-2-2-x-2-2-|
E|-0-0-x-0-0-0-x-0-0-0-x-0-0-0-x---------------------------------------------|

e|---------------------------------------------------------------------------|
B|---------------------------------------------------------------------------|
G|-4-x-4-4-4-x-4-4-4-x-2~~~~-------------------------------------------------|
D|-4-x-4-4-4-x-4-4-4-x-2~~~~-------------------------------------------------|
A|-2-x-2-2-2-x-2-2-2-x-0~~~~-------------------------------------------------|
E|---------------------------------------------------------------------------|

Verse (both guitars)
e|---------------------------------------------------------------------------|
B|---------------------------------------------------------------------------|
G|--------2-----4-----2------------------------------------------------------|
D|--2-----2-x16-4-x16-2-x16--------------------------------------------------|
A|--2-x16-0-----2-----0------------------------------------------------------|
E|--0------------------------------------------------------------------------|
P.M:----------------------------------

Then
e|---------------------------------------------------------------------------|
B|---------------------------------------------------------------------------|
G|------2----4----2----------------------------------------------------------|
D|-2----2-x8-4-x8-2-x8-------------------------------------------------------|
A|-2-x8-0----2----0----------------------------------------------------------|
E|-0-------------------------------------------------------------------------|

Bridge (guitar 1)
e|---------------------------------------------------------------------------|
B|---------------------------------------------------------------------------|
G|-11-----14-----------------------------------------------------------------|
D|-x--x8--x-x8----Then joins in with other guitar----------------------------|
A|-9------12-----------------------------------------------------------------|
E|---------------------------------------------------------------------------|

Guitar 2
e|---------------------------------------------------------------------------|
B|---------------------------------------------------------------------------|
G|--------2----------------2-------------------------------------------------|
D|--4-----2~~~~--2----4----2-x16---------------------------------------------|
A|--4-x32-0------2-x8-4-x8-0-------------------------------------------------|
E|--2------------0----2------------------------------------------------------|
'If you could go anywhere right now, where would you go and would you miss me
when you get there, there's no place that i would rather be.'

Chorus (both guitars)
e|---------------------------------------------------------------------------|
B|---------------------------------------------------------------------------|
G|-------2-----4-----2-------------------------------------------------------|
D|-2-----2-x16-4-x16-2-x16---------------------------------------------------|
A|-2-x16-0-----2-----0-------------------------------------------------------|
E|-0-------------------------------------------------------------------------|

Then second guitar does this: E|-12--|

Solo (guitar 1)
e|---------------------------------------------------------------------------|
B|---------------------------------------------------------------------------|
G|---------------------------------------------------------------------------|
D|-4-4-4-4/6-6-6-64-4-4-42-2-2-2/7-7-7-7-6-6-6-64-4-4-42-2-2-2----------|
A|---------------------------------------------------------------------------|
E|---------------------------------------------------------------------------|

e|---------------------------------------------------------------------------|
B|---------------------------------------------------------------------------|
G|---------------------------------------------------------------------------|
D|-97-6-4-6-4---------------------------------------------------------------|x2
A|---------------------------------------------------------------------------|
E|---------------------------------------------------------------------------|

Guitar 2
e|---------------------------------------------------------------------------|
B|---------------------------------------------------------------------------|
G|-------------------------------2-2-2-x-2-2-2-x-2-2-2-x-2-2-2-x-4-4-4-x-4-4-|
D|-2-2-x-2-2-2-x-2-2-2-x-2-2-2-x-2-2-2-x-2-2-2-x-2-2-2-x-2-2-2-x-4-4-4-x-4-4-|
A|-2-2-x-2-2-2-x-2-2-2-x-2-2-2-x-0-0-0-x-0-0-0-x-0-0-0-x-0-0-0-x-2-2-2-x-2-2-|
E|-0-0-x-0-0-0-x-0-0-0-x-0-0-0-x---------------------------------------------|

e|---------------------------------------------------------------------------|
B|---------------------------------------------------------------------------|
G|-4-x-4-4-4-x-4-4-4-x-2~~~~-------------------------------------------------|
D|-4-x-4-4-4-x-4-4-4-x-2~~~~-------------------------------------------------|
A|-2-x-2-2-2-x-2-2-2-x-0~~~~-------------------------------------------------|
E|---------------------------------------------------------------------------|

Please make corrections or comments on this tab or email me at: lessthanjake_42@hotmail.com

Thanx

| / slide up
| slide down
| x Mute note

===============================================================================