Ataris — Teenage Riot

На этой странице Вы можете ознакомиться с 3 версиями подбора аккордов для гитары к песне "Teenage Riot" группы (исполнителя) "Ataris".

The Ataris
Teenage Riot
End Is Forever
Tabbed by Chris

Intro
e|------------------------------------------------------|
B|---------------------5-7-5-----3-5-3------------------|
G|-55555555-99999999---------------------------------5--|
D|-55555555-99999999-7-------7-5-------5--3---6666-5-5--|
A|-33333333-77777777-7-------7-5-------5--3---6666-5-3--|
E|-------------------5-------5-3-------3--1---4444-3----|

Verse
e|------------------------------------------------------|
B|------------------------------------------------------|
G|-55555555-99999999------------------------------------|
D|-55555555-99999999-7777-5555-3333-6666-5--------------|
A|-33333333-77777777-7777-5555-3333-6666-5--------------|
E|-------------------5555-3333-1111-4444-3--------------|
pm ........ ........ .... .... ....

Chorus
e|------------------------------------------------------|
B|------------------------------------------------------|
G|-----------5555------------------5--5---5-------------|
D|-3333-5555-5555-4444-3333-5555-4-5--5-5-5-5-----------|
A|-3333-5555-3333-4444-3333-5555-4-3--3-5-3-5-----------|
E|-1111-3333------2222-1111-3333-2------3---3-----------|

e|------------------------------------------------------|
B|------------------------------------------------------|
G|-----------5555---------------------------------------|
D|-3333-5555-5555-4444-3333-5---------------------------|
A|-3333-5555-3333-4444-3333-5---------------------------|
E|-1111-3333------2222-1111-3---------------------------|

Pre Chorus
e|------------------------------------------------------|
B|------------------------------------------------------|
G|-55555555--99999999-----------------------------------|
D|-55555555--99999999--7777-5555-3333-6666-5------------|
A|-33333333--77777777--7777-5555-3333-6666-5------------|
E|---------------------5555-3333-1111-4444-3------------|

e|------------------------------------------------------|
B|---------------------5-7-5-----3-5-3------------------|
G|-55555555-99999999------------------------------------|
D|-55555555-99999999-7-------7-5-------5--3333--6666-5--|
A|-33333333-77777777-7-------7-5-------5--3333--6666-5--|
E|-------------------5-------5-3-------3--1111--4444-3--|

Bridge
e|------------------------------------------------------|
B|------------------------------------------------------|
G|-22222222-44444444-55555555-77777777--55555555--------|
D|-22222222-44444444-55555555-77777777--55555555--------|
A|-00000000-22222222-33333333-55555555--33333333--------|
E|------------------------------------------------------|

e|------------------------------------------------------|
B|------------------------------------------------------|
G|-22222222-44444444-1010101010101010-99999999-77777777-|
D|-22222222-44444444-1010101010101010-99999999-77777777-|
A|-00000000-22222222-8 8 8 8 8 8 8 8--77777777-55555555-|
E|------------------------------------------------------|

e|------------------------------------------------------|
B|------------------------------------------------------|
G|-22222222-44444444-55555555-77777777--55555555--------|
D|-22222222-44444444-55555555-77777777--55555555--------|
A|-00000000-22222222-33333333-55555555--33333333--------|
E|------------------------------------------------------|

e|------------------------------------------------------|
B|------------------------------------------------------|
G|------------------------------------------------------|
D|-77xxx-66xxx-55xxx-44xxx-33---------------------------|
A|-77xxx-66xxx-55xxx-44xxx-33---------------------------|
E|-55xxx-44xxx-33xxx-22xxx-11---------------------------|

Finish
e|------------------------------------------------------|
B|-----------------------------------5-7-5-----3-5-3----|
G|-5-------------55555555-99999999----------------------|
D|-5-pick scrape-55555555-99999999-7-------7-5-------5-3|
A|-3-------------33333333-77777777-7-------7-5-------5-3|
E|---------------------------------5-------5-3-------3-1|
Ataris Teenage Riot.
Tabbed by Rico NFGRules@hotmail.com.

the end of the verse riff before the pre-chorus ends bouncing back and
forth on the 3rd and 2nd frets of the d-string. *hopefully this has helped
you a bit Start with a mad slide from the 8th to the 3rd fret on the A string
(listen for timing/style)

INTRO / VERSE
G|---------------------------------------------------------------------------|
D|-----------2----5----2----------2--5--2------------------------------------|
A|-----3--3-----------------3--3---------------------------------------------|
E|---------------------------------------------------------------------------|

G|---------------------------------------------------------------------------|
D|-------------6----9---6----9----6------------------------------------------|
A|-----7--7------------------------------7----5------------------------------|
E|---------------------------------------------------------------------------|

G|---------------------------------------------------------------------------|
D|---------------------------------------------------------------------------|
A|-------------5----7----5----------------5---3---2--------------------------|
E|----5---5----------------------3---3---------------------------------------|

G|---------------------------------------------------------------------------|
D|-------------0---3---2---3---2---0-----------------------------------------|
A|----------------------------------------2----------------------------------|
E|----1---1------------------------------------------------------------------|

INTRO / VERSE (variation 2)
G|---------------------------------------------------------------------------|
D|-----------2----5----2----------2--5--2------------------------------------|
A|-----3--3-----------------3--3---------------------------------------------|
E|---------------------------------------------------------------------------|

G|----------------------------9---7---5---4----------------------------------|
D|-------------6----9---6----------------------------------------------------|
A|-----7--7------------------------------------------------------------------|
E|---------------------------------------------------------------------------|

G|---------------------------------------------------------------------------|
D|---------------------------------------------------------------------------|
A|---------------------------------------------------------------------------|
E|-----5-----------------5--5---3-------------3--3--1-----4--4--3------------|

Start the show...
G|---------------------------------------------------------------------------|
D|----------------------2---2------------------------------------------------|
A|----2---2---3---3------------1---1-----3--3---6---5---3-3-3---0-0-0--------|
E|---------------------------------------------------------------------------|

Breakdown (timing varies, correct notes however)
G|---------------------------------------------------------------------------|
D|---------------------------------------------------------------------------|
A|---------------------------------------------------------------------------|
E|---5-----4----3----2-----1-------3-----------------------------------------|

==============================================================================
:: Ultimate Guitar Archive ::
http://www.ultimate-guitar.com
------------------------------------------------------------------------ 
TEENAGE RIOT - The Ataris
-------------------------------------------------------------------------
TABBED BY: Rob (freeskier20@hotmail.com)

/ means slide
p.m means palm mute

Intro

Guitar2
e|---------------------------------------------|
B|---------------------------------------------|
G|-5-x8----------------------------------------|
D|-5----2------7-7---/--5-5---/-3-x4--6-x5--5--|
A|-3----2-*8---7-7--/---5-5--/--3-----6-----5--|
E|------0------5-5-/----3-3-/---1-----4-----3--|

Guitar1
e|---------------------------------------------|
B|--------------5-6-5-------3-5-3--------------|
G|--------------------7-5----------------------|
D|---------------------------------------------|
A|---------------------------------------------|
E|---------------------------------------------|

Verse

Guitar1+2
e|-------------------------------------------------------------------->
B|-------------------------------------------------------------------->
G|-5-5-5-5-5-5-5-5--4-4-4-4-4-4-4-4----------------------------------->
D|-5-5-5-5-5-5-5-5--4-4-4-4-4-4-4-4--7-7-7-7-7-7-7-7--5-5-5-5-5-5-5-5->
A|-3-3-3-3-3-3-3-3--2-2-2-2-2-2-2-2--7-7-7-7-7-7-7-7--5-5-5-5-5-5-5-5->
E|-----------------------------------5-5-5-5-5-5-5-5--3-3-3-3-3-3-3-3->
pm...................................................................

e|--------------------------------|
B|--------------------------------|
G|--------------------------------|
D|-3-3-3-3-3-3-3-3---6-6-6-6-6--5-|
A|-3-3-3-3-3-3-3-3---6-6-6-6-6--5-|
E|-1-1-1-1-1-1-1-1---4-4-4-4-4--3-|
..................

e|-------------------------------------------------------------------->
B|-------------------------------------------------------------------->
G|-5-5-5-5-5-5-5-5---------------------------------------------------->
D|-5-5-5-5-5-5-5-5-------------------7-7-7-7-7-7-7-7--5-5-5-5-5-5-5-5->
A|-3-3-3-3-3-3-3-3--2-2-2-2-2-2-2-2--7-7-7-7-7-7-7-7--5-5-5-5-5-5-5-5->
E|------------------0-0-0-0-0-0-0-0--5-5-5-5-5-5-5-5--3-3-3-3-3-3-3-3->

e|--------------------------------|
B|--------------------------------|
G|--------------------------------|
D|-3-3-3-3-3-3-3-3---6-6-6-6-6--5-|
A|-3-3-3-3-3-3-3-3---6-6-6-6-6--5-|
E|-1-1-1-1-1-1-1-1---4-4-4-4-4--3-|

Pre-chorus

Guitar1+2
e|------------------------------------------------------------------------>
B|------------------------------------------------------------------------>
G|-------------------5-5-5-5---------------------------5-5-5-5-5-----5---->
D|-2-2-2-2--3-3-3-3--5-5-5-5--4-4-4-4---3-3-3-3--6--5--5-5-5-5-5--5--5--5->
A|-2-2-2-2--3-3-3-3--3-3-3-3--4-4-4-4---3-3-3-3--6--5--3-3-3-3-3--5--3--5->
E|-0-0-0-0--1-1-1-1-----------2-2-2-2---1-1-1-1--4--3-------------3-----3->

e|------------------------------------------------|
B|------------------------------------------------|
G|-------------------5-5-5-5----------------------|
D|-2-2-2-2--3-3-3-3--5-5-5-5--4-4-4-4--3-3-3-3--5-|
A|-2-2-2-2--3-3-3-3--3-3-3-3--4-4-4-4--3-3-3-3--5-|
E|-0-0-0-0--1-1-1-1-----------2-2-2-2--1-1-1-1--3-|

Chorus

Guitar1+2
e|-------------------------------------------------------------------->
B|-------------------------------------------------------------------->
G|-5-5-5-5-5-5-5-5---------------------------------------------------->
D|-5-5-5-5-5-5-5-5-------------------7-7-7-7-7-7-7-7--5-5-5-5-5-5-5-5->
A|-3-3-3-3-3-3-3-3--2-2-2-2-2-2-2-2--7-7-7-7-7-7-7-7--5-5-5-5-5-5-5-5->
E|------------------0-0-0-0-0-0-0-0--5-5-5-5-5-5-5-5--3-3-3-3-3-3-3-3->

e|--------------------------------|
B|--------------------------------|
G|--------------------------------|
D|-3-3-3-3-3-3-3-3---6-6-6-6-6--5-|
A|-3-3-3-3-3-3-3-3---6-6-6-6-6--5-|
E|-1-1-1-1-1-1-1-1---4-4-4-4-4--3-|
Guitar2
e|------------------------------------------------------------->
B|------------------------------------------------------------->
G|-5-5-5-5-5-5-5-5--------------------------------------------->
D|-5-5-5-5-5-5-5-5-------------------7-7---/--5-5---/-3-3-3-3-->
A|-3-3-3-3-3-3-3-3--2-2-2-2-2-2-2-2--7-7--/---5-5--/--3-3-3-3-->
E|------------------0-0-0-0-0-0-0-0--5-5-/----3-3-/---1-1-1-1-->

Guitar1
e|--------------------------------------------------------------------|
B|-------------------------------------5-6-5-------3-5-3--------------|
G|-------------------------------------------7-5----------------------|
D|--------------------------------------------------------------------|
A|--------------------------------------------------------------------|
E|--------------------------------------------------------------------|

Guitar2
e|--------------|
B|--------------|
G|--------------|
D|-6-6-6-6-6--5-|
A|-6-6-6-6-6--5-|
E|-4-4-4-4-4--3-|

Verse

Pre-chorus

Fill

Guitar2
e|--------------------------------------------------------------|
B|--------------------------------------------------------------|
G|--------------------------------------------------------------|
D|-7-7-7-7--9-9-9-9--10-10-10-10--12-12-12-12--15-15-15-15--12--|
A|-7-7-7-7--9-9-9-9--10-10-10-10--12-12-12-12--15-15-15-15--12--|
E|-5-5-5-5--7-7-7-7---8--8--8--8--10-10-10-10--13-13-13-13--10--| x4

Guitar1
e|--------------------------------------------------------------------------|
B|--------------------------------------------------------------------------|
G|--------------------------------------------------------------------------|
D|-7-7-7-7--9-9-9-9--15-15-15-15--14--10-10-10-10--12-12-12-12-12-12-12--10-|
A|-7-7-7-7--9-9-9-9--15-15-15-15--14--10-10-10-10--12-12-12-12-12-12-12---8-|
E|-5-5-5-5--7-7-7-7--13-13-13-13--12---8--8--8--8--10-10-10-10-10-10-10---8-|

Play this after the 2nd guitar has done the first fill. Play only once.

Chorus
(First part played without guitars, on the second part the guitars come in)