Ataris — The Boys Of Summer

На этой странице Вы можете ознакомиться с 6 версиями подбора аккордов для гитары к песне "The Boys Of Summer" группы (исполнителя) "Ataris".

Ataris - The Boys Of Summer

this is my first tab every1 so give kill me if some of it is wrong.

intro
g-------------------------------------------------------------------------------
d-------------------------------------------------------------------------------
a-6-----------------6-----2----4----2-------------------------------------------
e-------------------------------------------------------------------------------
verse
g----------------------------------------------------------------------------------------
d----------------------------------------------------------------------------------------
a-66666666666666666666--22222222222222222222--44444444444444444444--22222222222222222222-
e----------------------------------------------------------------------------------------

chorus
g-----------------------------------------------------------------------------
d-----------------------------------------------------------------------------
a------------------44444444444444444444444444444444-------------------------
e-2222222222222222-----------------------------------4444444444444444------- 2x

verse:2x
chorus:2x
interlude
verse:4x
chorus:4x

end:
g-------------------------------
d-------------------------------
a------4------4-----------------
e-2-----------------4-----------


Thats it. Very simple song. U can figure out the power chords from this 2 for
guitar. Email me any correctionsat evilgoldfish112@yahoo.com.
This is my first tab, but I think it's right.
> play 16 times
/ slide

Intro:
G|---------------------------------|
D|---------------------------------|
A|--5----5-------------------------|
E|-------------7------9-------7----|

Verse:
G|-----------------------------------------|
D|-----------------------------------------|
A|-5>--------------------------------------|
E|-----------7>--------9>----------7>------|

Chorus:
G|-------------------------------------------------|
D|-------------------------------------------------|
A|-55555555----------------------------------------|
E|-----------77777777---99999999---77777777--------|

Bridge: (you do this once then you play the verse riff two times)
G|---------------|
D|---------------|
A|--5-------5----|
E|---------------|

Ending Chorus:
G|----------------------------------------------------|
D|----------------------------------------------------|
A|-55555555-------------------------------------------|
E|------------77777777---99999999---77777777----------|

G|--------------------------------------------------------|
D|--------------------------------------------------------|
A|-55555555------------------------------------------5----|
E|-----------77777777--99999999---777777777/9--9--7-------|

G|---------------------------------------------------------|
D|---------------------------------------------------------|
A|-55555555----------------------------------------------5-|
E|-----------77777777---99999999--777777777/9----9---7-----|

G|-----------------------------------------------------|
D|-----------------------------------------------------|
A|-55555555--------------------------------------------|
E|-----------77777777---99999999--77777777-------------|

Outro:
G|-----------------------------|
D|-----------------------------|
A|---5-------------------------|
E|--------7-----9-----7--------|

Intro: x1
Verse: x1
Chorus: x2
Verse: x2
Chorus: x2
Bridge x1/Verse x2
Verse: x1
Ending Chorus: x1
Outro: x1

Well, there it is. This song is actually a cover, but I don't know by who.
Enjoy! And, yes, girls can kick ass at bass too!
-------------------------------------------------------------------------------
The Ataris_-_The Boys Of Summer (v1.4)
-------------------------------------------------------------------------------
Tabbed by: RaZoRb0|z
Email: razorb0iz@hotmail.com

Tuning: Standard (For those whose voices are not that spectacular to reach that high
pitch in the chorus, tune it down by ј or Ѕ step.)

This tab will DEFINETELY look the same as some of the other tabs...but CHECK IT OUT
CAREFULLY before you decide that it IS the same.The correct number of electric
guitars in this song is 4!F-O-U-R!Either that,or Ataris recorded a back-up track
then played with it.Listen to the second solo VERY CAREFULLY(Headphones recommended
cuz that's how I found out there were 4 guitars and not 3) and you'll hear all 4 of 'em.
Don't follow the timings and number of times to play the notes exactly because they're
not accurate.Use your hearing to determine your own playing style.With distortion no
one can tell much of a difference anyway.

Version 1.4 - Found out that Hold Delay works fine as well in Guitar 4 solo
24th May 2004
Version 1.3 - corrected mistake in Guitar 4 solo.(Thnx to skasolo)
18th May 2004
Version 1.2 - corrected some notes in Guitar 4 solo. 12th April 2004
Version 1.0 - First Release 12th April 2004

High paced song.I love it a lot and I performed it in my school during teachers' day.
This is as accurate as I can get it.It may get more accurate if you guys can give me
some help by adding you comments.Come back frequently because I update as soon as I
get comments.

The Ataris_-_The Boys Of Summer
All Electric Guitars (Guitar 4 can figure out anything to play during the rest of the
song except for those parts that are written for him/her to play [Only parts he should
not touch are : Intro,Bridge,first solo,)

Intro
Guitar 1
e----------------------------------------------------------------------------
B----------------------------------------------------------------------------
G--------------------8~------------------4~------------------6~--------------
D--------------------8~----------------84~----------------4/6~--------------
A—-------------------6~----------------62~----------------2/4~--------------
E----------------------------------------------------------------------------
Feedback Pickscrape picksrape
Guitar 2 (Main Riff begins)
e----------------------------------------------------------------------------
B--------------------7-6--7-6--7-6--7-6--7-6--7-6--7-6--7-6--7-6--7-6--7-6---
G-----------------------6----6----6----6----6----6----6----6----6----6----6--
D----------------------------------------------------------------------------
A—---------------------------------------------------------------------------
E----------------------------------------------------------------------------
Guitar 3
e----------------------------------------------------------------------------
B----------------------------------------------------------------------------
G--8~----------------8~------------------4~------------------6~--------------
D--8~----------------8~----------------84~----------------4/6~--------------
A--6~----------------6~----------------62~----------------2/4~--------------
E----------------------------------------------------------------------------
Guitar 4
e----------------------------------------------------------------------------
B----------------------------------------------------------------------------
G-------------6--------------------------------------------------------------
D---------6h8---8~-----------------------------------------------------------
A----------------------------------------------------------------------------
E----------------------------------------------------------------------------

Intro (con't)
Guitar 1
e--------------------------------
B--------------------------------
G-------4~-----------------------
D-----64~-------------4-4-4-4---
A-----42~-------------2-2-2-2---
E--------------------------------
Guitar 2 (Main Riff Ends)
e--------------------------------
B--7-6--7-6--7-6--7-6--7-6--7-6--
G-----6----6----6----6----6----6-
D--------------------------------
A--------------------------------
E--------------------------------
Guitar 3
e--------------------------------
B--------------------------------
G-------4~-----------------------
D-----64~-------------4-4-4-4---
A-----42~-------------2-2-2-2---
E--------------------------------

Verse (Guitar 2 plays Main Riff, repeated as many times necessary)
Guitar 1
e----------------------------------------------------------------------------
B----------------------------------------------------------------------------
G--8---8-8-8-8--8--8-8-8-8--4---4-4-4-4--4--4-4-4-4--6---6-6-6-6--6--6-6-6-6-
D--8---8-8-8-8--8--8-8-8-8--4---4-4-4-4--4--4-4-4-4--6---6-6-6-6--6--6-6-6-6-
A--6---6-6-6-6--6--6-6-6-6--2---2-2-2-2--2--2-2-2-2--4---4-4-4-4--4--4-4-4-4-
E----------------------------------------------------------------------------
Guitar 3
e----------------------------------------------------------------------------
B----------------------------------------------------------------------------
G--8---8-8-8-8--8--8-8-8-8--4---4-4-4-4--4--4-4-4-4--6---6-6-6-6--6--6-6-6-6-
D--8---8-8-8-8--8--8-8-8-8--4---4-4-4-4--4--4-4-4-4--6---6-6-6-6--6--6-6-6-6-
A--6---6-6-6-6--6--6-6-6-6--2---2-2-2-2--2--2-2-2-2--4---4-4-4-4--4--4-4-4-4-
E----------------------------------------------------------------------------

Verse (con't)
Guitar 1
e---------------------------
B---------------------------
G--4---4-4-4-4--4--4-4-4-4--
D--4---4-4-4-4--4--4-4-4-4--
A--2---2-2-2-2--2--2-2-2-2--
E---------------------------
Guitar 3
e---------------------------
B---------------------------
G--4---4-4-4-4--4--4-4-4-4--
D--4---4-4-4-4--4--4-4-4-4--
A--2---2-2-2-2--2--2-2-2-2--
E---------------------------

Chorus
Guitar 1
e----------------------------------------------------------------------------
B----------------------------------------------------------------------------
G-3~-----------------6~-------------------6~-------------------4~------------
D-4~-----------------6~-----------6-6-6--66~---------6-6-6---64~------4-4-4-
A-4~---------4-4-----4~-----------4-4-4--44~---------4-4-4---42~------2-2-2-
E-2~---------2-2-------------------------------------------------------------
Guitar 2
e----------------------------------------------------------------------------
B--------7~---------------------------------------------------------2~-4~-0~-
G----------6~--------------------6~----------------6~------------------------
D------------6~--------------------6~----------------6~----------------------
A------------------------------------4~----------------4~--------------------
E----------------------------------------------------------------------------
Guitar 3
e----------------------------------------------------------------------------
B----------------------------------------------------------------------------
G-3~-----------------6~-------------------6~-------------------4~------------
D-4~-----------------6~-----------6-6-6--66~---------6-6-6---64~------4-4-4-
A-4~---------4-4-----4~-----------4-4-4--44~---------4-4-4---42~------2-2-2-
E-2~---------2-2-------------------------------------------------------------

Repeat Chorus

1st Solo (Guitar 2 plays Main Riff, repeated as many times necessary)
Guitar 1
e----------------------------------------------------------------------------
B----------------------------------------------------------------------------
G--8---8-8-8-8--8--8-8-8-8--4---4-4-4-4--4--4-4-4-4--6---6-6-6-6--6--6-6-6-6-
D--8---8-8-8-8--8--8-8-8-8--4---4-4-4-4--4--4-4-4-4--6---6-6-6-6--6--6-6-6-6-
A--6---6-6-6-6--6--6-6-6-6--2---2-2-2-2--2--2-2-2-2--4---4-4-4-4--4--4-4-4-4-
E----------------------------------------------------------------------------
Guitar 3
e----------------------------------------------------------------------------
B----------------------------------------------------------------------------
G--8-8-8-8-8-8-8-8-8-10-11-13—-11h10h11--------------------------------------
D--x-x-x-x-x-x-x-x-x--x--x--x---x--------------------------------------------
A--6-6-6-6-6-6-6-6-6--8--9-11---9h8h9----------------------------------------
E-------------------------------------------1h2/4-64----4-2-1------------1--

1st Solo (con't)
Guitar 1
e---------------------------
B---------------------------
G--4---4-4-4-4--4--4-4-4-4--
D--4---4-4-4-4--4--4-4-4-4--
A--2---2-2-2-2--2--2-2-2-2--
E---------------------------
Guitar 3
e--------------------------
B--------------------------
G--------------------------
D--------------------------
A---------------------6h4--
E--2/4/6-----2h1h2---------

Verse 2 (Guitar 2 plays Main Riff, repeated as many times necessary)
Guitar 1
e----------------------------------------------------------------------------
B----------------------------------------------------------------------------
G--8~-----------------------4~-----------------------------------------------
D--8~---------------------84~----------------------4/6-6-6-6-6-6-6-6-6-6-6--
A--6~---------------------62~----------------------2/4-4-4-4-4-4-4-4-4-4-4--
E----------------------------------------------------------------------------
pm - - - - - - - - - - -
Guitar 3
e----------------------------------------------------------------------------
B----------------------------------------------------------------------------
G----------------------------------------------------------------------------
D-8-8-8-8-8-8-8-8-8-8-8-8-8-4-4-4-4-4-4-4-4-4-4-4-4-4-6-6-6-6-6-6-6-6-6-6-6--
A-6-6-6-6-6-6-6-6-6-6-6-6-8-2-2-2-2-2-2-2-2-2-2-2-2-2-4-4-4-4-4-4-4-4-4-4-4--
E----------------------------------------------------------------------------
pm- - - - - - - - - - - - - - - - - - - - - - - - - - - - - - - - - - - - -

Verse 2 (con't)
Guitar 1
e-----------------------------
B-----------------------------
G-----------------------------
D-6-4-4-4-4-4-4-4-4-4-4-4-4-4-
A-4-2-2-2-2-2-2-2-2-2-2-2-2-2-
E-----------------------------
pm- - - - - - - - grad. lift pm
Guitar 3
e-----------------------------
B-----------------------------
G-----------------------------
D-6-4-4-4-4-4-4-4-4-4-4-4-4-4-
A-4-2-2-2-2-2-2-2-2-2-2-2-2-2-
E-----------------------------
pm- - - - - - - - grad. lift pm

Chorus
Guitar 1
e----------------------------------------------------------------------------
B----------------------------------------------------------------------------
G-3~-----------------6~-------------------6~-------------------4~------------
D-4~-----------------6~-----------6-6-6--66~---------6-6-6---64~------4-4-4-
A-4~---------4-4-----4~-----------4-4-4--44~---------4-4-4---42~------2-2-2-
E-2~---------2-2-------------------------------------------------------------
Guitar 2
e----------------------------------------------------------------------------
B--------7~---------------------------------------------------------2~-4~-0~-
G----------6~--------------------6~----------------6~------------------------
D------------6~--------------------6~----------------6~----------------------
A------------------------------------4~----------------4~--------------------
E----------------------------------------------------------------------------
Guitar 3
e----------------------------------------------------------------------------
B----------------------------------------------------------------------------
G-3~-----------------6~-------------------6~-------------------4~------------
D-4~-----------------6~-----------6-6-6--66~---------6-6-6---64~------4-4-4-
A-4~---------4-4-----4~-----------4-4-4--44~---------4-4-4---42~------2-2-2-
E-2~---------2-2-------------------------------------------------------------

Repeat Chorus

Bridge
Guitar 1
e----------------------------------------------------------------------
B----------------------------------------------------------------------
G------------------------------------4~--------------------------------
D------------------------------------4~--------------------------------
A------------------------------------2~h4h2~---------------------------
E----------------------------------------------------------------------
Guitar 3
e----------------------------------------------------------------------
B----------------------------------------------------------------------
G--4~--------------------------------4~--------------------------------
D--4~--------------------------------4~--------------------------------
A--2~--------------------------------2~--------------------------------
E----------------------------------------------------------------------
Guitar 4 (Slight Distortion)
e----------------------------------------------------------------------
B----4-4-2-2-0--4—-4-2-0--4-4-2-2-0--4--4-2-0--------------------------
G---------------------------------------------------------------------- 2x
D----------------------------------------------------------------------
A----------------------------------------------------------------------
E----------------------------------------------------------------------
| pm- - - - - - - - - - - - - - - - - - - - |

2nd Solo (Not Exact Timing or Strumming shown) (Guitar 2 plays Main Riff
repeated as many times as nescessary)
Guitar 1
e-----------------------------------------------------------------------
B-----------------------------------------------------------------------
G--8-8-8-8-8-8-8-8-8-10-11-13—-11h10h11---------------------------------
D--x-x-x-x-x-x-x-x-x--x--x--x---xhxhx-----------------------------------
A--6-6-6-6-6-6-6-6-6--8--9-11---9h8h9-----------------------------------
E-------------------------------------------1h2/4/64------2-1-------1—-
Guitar 3
e----------------------------------------------------------------------------
B----------------------------------------------------------------------------
G--8~----------------4~------------------6~------------------4~--------------
D--8~----------------4~----------------4/6~----------------64~--------------
A--6~----------------2~----------------2/4~----------------42~--------------
E----------------------------------------------------------------------------
Pickscrape pickscrape
Guitar 4 (with Delay, starting point could be Time - 441,Feedback - 7.0,Speed - 0.10
Depth - 10.0,Mix - 10.0...Adjust your own timings from this starting point)FURTHER
NOTE:Found out that you can use Hold Delay too,
but haven't figured out the settings for that effect.
e-----------------------------------------------------------------------
B--14---------------------14p12----------------------14---------------
G--------------------------------13--11---------------------------------
D-----------------------------------------------------------------------
A-----------------------------------------------------------------------
E-----------------------------------------------------------------------

2nd Solo (con't) (Guitar 2 plays Main Riff repeated as many times as nescessary)
Guitar 1
e-------------------------------------------------------------------------
B-------------------------------------------------------------------------
G---------------------------------15-15-15-15-15-15-16-15-13-11--11-13-13-
D---------------------------------x-x-x-x-x-x-x--x--x--x--x--x---x--x—-x--
A---------------------------------13-13-13-13-13-13-14-13-11-9---9--11-11-
E-2/4/6---1h2h1-----------------------------------------------------------
Guitar 3
e-----------------------------------------------------------------------
B-----------------------------------------------------------------------
G--8---8-8-8-8--8--8-8-8-8--8-8-8---8-8-8-8--8--8-8-8-8--8-8-4---4-4-4-4
D--8---8-8-8-8--8--8-8-8-8--8-8-8---8-8-8-8--8--8-8-8-8--8-8-4---4-4-4-4
A--6---6-6-6-6--6--6-6-6-6--6-6-6---6-6-6-6--6--6-6-6-6--6-6-2---2-2-2-2
E-----------------------------------------------------------------------
Guitar 4
e-----------------------------------------------------------------------
B---------14p12--------------------14--------------------------14p12---
G-------------------13h11---------------------------------------------13
D-----------------------------------------------------------------------
A-----------------------------------------------------------------------
E-----------------------------------------------------------------------

2nd Solo (con't)
Guitar 1
e----------------------------------------------------------------------
B----------------------------------------------------------------------
G—-11-11-11-11-13-13-13-15-15-13-13-13-13-13-13-11-10-10-10-10-13-15---
D—-x--x--x--x--x--x--x--x--x--x—-x—-x-—x--x--x--x--x--x--x--x—-x-—x----
A—-9--9--9--9--11-11-11-13-13-11-11-11-11-11-11-9--8--8--8--9--11-13---
E----------------------------------------------------------------------
Guitar 3
e----------------------------------------------------------------------
B----------------------------------------------------------------------
G--4--4-4-4-4--4-6---6-6-6-6--6--6-6-6-6--4---4-4-4-4--4--4-4---4-4-4--
D--4--4-4-4-4--4-6---6-6-6-6--6--6-6-6-6--4---4-4-4-4--4--4-4---4-4-4--
A--2--2-2-2-2--2-4---4-4-4-4--4--4-4-4-4--2---2-2-2-2--2--2-2---2-2-2--
E----------------------------------------------------------------------
Guitar 4
e-----------------------------------------------------------------------
B-------------------14-------------------------------6p7p6-6-----------
G-11-------------------------------------------------------8-8p6-6h8----
D---------------------------------------------------------------8-------
A-----------------------------------------------------------------------
E-----------------------------------------------------------------------

2nd Solo (con't)
Guitar 1
e-------------------------------
B-------------------------------
G--18-18-18-18-18-18-18~--------
D—-x--x--x--x--x--x--x----------
A—-16-16-16-16-16-16-16~--------
E-------------------------------
Guitar 3
e--------------------------
B--------------------------
G-4------------------------
D-4------4-4-4-4-4-4-4-4---
A-2------2-2-2-2-2-2-2-2---
E--------------------------
Guitar 4
e--------------------------
B------------7---7h9-11~---
G-----8-8-8---8------------
D--------------------------
A--------------------------
E--------------------------

Verse 3
Guitar 1
e----------------------------------------------------------------------------
B----------------------------------------------------------------------------
G---------------------------4~-----------------------------------------------
D-------------------------84~----------------------4/6-6-6-6-6-6-6-6-6-6-6--
A-------------------------62~----------------------2/4-4-4-4-4-4-4-4-4-4-4--
E----------------------------------------------------------------------------
pm - - - - - - - - - - -
Guitar 3
e----------------------------------------------------------------------------
B----------------------------------------------------------------------------
G--8~-----------------------4~-----------------------------------------------
D--8~---------------------84~----------------------4/6-6-6-6-6-6-6-6-6-6-6--
A--6~---------------------62~----------------------2/4-4-4-4-4-4-4-4-4-4-4--
E----------------------------------------------------------------------------
pm - - - - - - - - - - -

Verse 3 (con`t)
Guitar 1
e--------------------------------
B--------------------------------
G-----------------------------4x-
D-6-4-4-4-4-4-4-4-4-4-4-4-4-4-4x- - Palmmute
A-4-2-2-2-2-2-2-2-2-2-2-2-2-2-2x-
E--------------------------------
pm- - - - - - - - grad. lift pm
Guitar 3
e--------------------------------
B--------------------------------
G-----------------------------4x-
D-6-4-4-4-4-4-4-4-4-4-4-4-4-4-4x- - Palmmute
A-4-2-2-2-2-2-2-2-2-2-2-2-2-2-2x-
E--------------------------------
pm- - - - - - - - grad. lift pm

Chorus
Guitar 1
e----------------------------------------------------------------------------
B----------------------------------------------------------------------------
G-3~-----------------6~-------------------6~-------------------4~------------
D-4~-----------------6~-----------6-6-6--66~---------6-6-6---64~------4-4-4-
A-4~---------4-4-----4~-----------4-4-4--44~---------4-4-4---42~------2-2-2-
E-2~---------2-2-------------------------------------------------------------
Guitar 2
e----------------------------------------------------------------------------
B--------7~---------------------------------------------------------2~-4~-0~-
G----------6~--------------------6~----------------6~------------------------
D------------6~--------------------6~----------------6~----------------------
A------------------------------------4~----------------4~--------------------
E----------------------------------------------------------------------------
Guitar 3
e----------------------------------------------------------------------------
B----------------------------------------------------------------------------
G-3~-----------------6~-------------------6~-------------------4~------------
D-4~-----------------6~-----------6-6-6--66~---------6-6-6---64~------4-4-4-
A-4~---------4-4-----4~-----------4-4-4--44~---------4-4-4---42~------2-2-2-
E-2~---------2-2-------------------------------------------------------------


Chorus
Guitar 1
e----------------------------------------------------------------------------
B----------------------------------------------------------------------------
G-3~-----------------6~-------------------6~-------------------4~------------
D-4~-----------------6~-----------6-6-6--66~---------6-6-6---64~------4-4-4-
A-4~---------4-4-----4~-----------4-4-4--44~---------4-4-4---42~------2-2-2-
E-2~---------2-2-------------------------------------------------------------
Guitar 2
e----------------------------------------------------------------------------
B--------7~---------------------------------------------------------2~-4~-0~-
G----------6~--------------------6~----------------6~------------------------
D------------6~--------------------6~----------------6~----------------------
A------------------------------------4~----------------4~--------------------
E----------------------------------------------------------------------------
Guitar 3
e----------------------------------------------------------------------------
B----------------------------------------------------------------------------
G-3~-----------------6~-------------------6~-------------------4~------------
D-4~-----------------6~-----------6-6-6--66~---------6-6-6---64~------4-4-4-
A-4~---------4-4-----4~-----------4-4-4--44~---------4-4-4---42~------2-2-2-
E-2~---------2-2-------------------------------------------------------------
Guitar 4
e--------------------------
B----7-6-7-----------------
G----------4-3-1-----------
D--------------------------
A--------------------------
E--------------------------

Pickscrape, Then...

Final Chorus
Guitar 1
e----------------------------------------------------------------------------
B----------------------------------------------------------------------------
G-3-3-3-3-3----------6-6-6-6-6-6-6-6-6-6-6-6-6-----------------4-4-4-4-4-4---
D-4-4-4-4-4----------6-6-6-6-6-6-6-6-6-6-6-6-6---------------64-4-4-4-4-4---
A-4-4-4-4-4----------4-4-4-4-4-4-4-4-4-4-4-4-4---------------42-2-2-2-2-2---
E-2-2-2-2-2------------------------------------------------------------------
Guitar 2
e----------------------------------------------------------------------------
B--------7~---------------------------------------------------------2~-4~-0~-
G----------6~--------------------6~----------------6~------------------------
D------------6~--------------------6~----------------6~----------------------
A------------------------------------4~----------------4~--------------------
E----------------------------------------------------------------------------
Guitar 3
e----------------------------------------------------------------------------
B----------------------------------------------------------------------------
G-3-3-3-3-3----------6-6-6-6-6-6-6-6-6-6-6-6-6-----------------4-4-4-4-4-4---
D-4-4-4-4-4----------6-6-6-6-6-6-6-6-6-6-6-6-6---------------64-4-4-4-4-4---
A-4-4-4-4-4----------4-4-4-4-4-4-4-4-4-4-4-4-4---------------42-2-2-2-2-2---
E-2-2-2-2-2------------------------------------------------------------------
Guitar 4
e--6--4--6--2---2----6--4--6--2-----2-----6--4--6--2-----2----6--4--6--7--6-4
B-------------2-------------------2--------------------2---------------------
G----------------------------------------------------------------------------
D----------------------------------------------------------------------------
A----------------------------------------------------------------------------
E----------------------------------------------------------------------------

Repeat Final chorus
Outro (After Final Chorus)
Guitar 1
e----------------------------------------------------------------------------
B----------------------------------------------------------------------------
G----------------------6~-------------------6~------------------4~-----------
D--4~------------------6~-------------------6~----------------84~-----------
A--4~------------------4~-------------------4~----------------62~-----------
E--2~------------------------------------------------------------------------
Pickscrape pickscrape picksrape
Guitars 3
e----------------------------------------------------------------------------
B----------------------------------------------------------------------------
G----------------------6~-------------------6~------------------4~-----------
D--4~------------------6~-------------------6~----------------84~-----------
A--4~------------------4~-------------------4~----------------62~-----------
E--2~------------------------------------------------------------------------
Pickscrape pickscrape pickscrape
Guitar 4
e--6--4--6--2-----2----6--4--6--2-----2-----6--4--6--2-----2-----------------
B--------------2-------------------2--------------------2---------2h4~-------
G----------------------------------------------------------------------------
D----------------------------------------------------------------------------
A----------------------------------------------------------------------------
E----------------------------------------------------------------------------

All guitars fade out

| / slide up
| slide down
| h hammer-on
| p pull-off
| ~ vibrato
| + harmonic
| x Mute note
===============================================================================
Intro
E---9-/11------------|
A---11/13-11h13--13--|
D---11/13------11----|
G--------------------|
B--------------------|
e--------------------|

Background-This is played off and on throughout the whole song.
E------------|
A------------|
D--------11--|
G---11-10----|
B------------|
e------------|

Verse-This is all that is played during the verse, it is just repeated.
E---11-7-9--7--|
A---13-9-11-9--|
D---13-9-11-9--|
G--------------|
B--------------|
e--------------|

Chorus-All the cords in the chorus, just repeat.
E---9--9--7--|
A---9--11-9--|
D---11-11-9--|
G---11-10-8--|
B---9--9--7--|
e------------|

Verse-the second Verse and the third have a bit of palm muting in them.
E---11-7-9--7--|
A---13-9-11-9--|
D---13-9-11-9--|
G--------------|
B--------------|
e--------------|

Verse Background Solo-If you listen closely there is a background solo played during the second Verse.
E---11-----11-13-12-12/14-12-12----4-6-7-4---4/2-1----1-2-4-4/6-2-2--|
A--------------------------------------------------------------------|
D--------------------------------------------------------------------|
G--------------------------------------------------------------------|
B--------------------------------------------------------------------|
e--------------------------------------------------------------------|

Chorus.
E---9--9--7--|
A---9--11-9--|
D---11-11-9--|
G---11-10-8--|
B---9--9--7--|
e------------|

Bridge-This is everything included in the bridge, there are technically three guitars
playing, but one of them is doubled over at one point counting as 4, but the fourth is
VERY faint and not needed. In one part it plays the same solo during the second verse
witch is above, and during the whole thing is played that same three notes at the top of
this tab. Just listen to the song and figure out what to play and when...it's all here.

E--------------------------------|
A--------------------------------|
D---13-13-11-11-9-9--13-13-11-9--|
G--------------------------------|
B--------------------------------|
e--------------------------------|


E-------------------------------------------------------------|
A-------------------------------------------------------------|
D-------------------------------------------------------------|
G---18--18-16-15-11-18-16-15-11---11h13p11-10/11/10-8/10-6/8--|
B-------------------------------------------------------------|
e-------------------------------------------------------------|

E-------------------------|
A-------------------------|
D---19-17-16-14/16/14-12--|
G-------------------------|
B-------------------------|
e-------------------------|

E--------------------------|
A--------------------------|
D--------------------------|
G---8-10-8-11-8-13-15-8-8--|
B--------------------------|
e--------------------------|

Verse.
E---11-7-9--7--|
A---13-9-11-9--|
D---13-9-11-9--|
G--------------|
B--------------|
e--------------|

Chorus.
E---9--9--7--|
A---9--11-9--|
D---11-11-9--|
G---11-10-8--|
B---9--9--7--|
e------------|

Chorus Background-Played in the back during the last chorus and alone at the very end of the song.
E-----------------------------------------------|
A-----------------------------------------------|
D------------11-----------11-----------11-------|
G----------11--11-------11--11-------11—11-6/8--|
B---11-9-11------11-9-11------11-9-11-----------|
e-----------------------------------------------|
The Ataris
The Boys of Summer (Don Henley Cover)
So Long, Astoria

Standard Tuning
h - Hammer
p - Pull
~ - Ring
- Slide Down
/ - Slide Up
pm - Palm Mute

Intro
Guitar 1
e----------------------------------------------------------------------------
B----------------------------------------------------------------------------
G--8~----------------8~------------------4~------------------6~--------------
D--8~----------------8~----------------84~----------------4/6~--------------
A--6~----------------6~----------------62~----------------2/4~--------------
E----------------------------------------------------------------------------
Guitar 2 (Main Riff begins)
e----------------------------------------------------------------------------
B--------------------7-6--7-6--7-6--7-6--7-6--7-6--7-6--7-6--7-6--7-6--7-6---
G--8~---------6---------6----6----6----6----6----6----6----6----6----6----6--
D--8~-----6h8---8~-----------------------------------------------------------
A--6~------------------------------------------------------------------------
E----------------------------------------------------------------------------

Intro (con't)
Guitar 1
e--------------------------------
B--------------------------------
G-------4~-----------------------
D-----64~-------------4-4-4-4---
A-----42~-------------2-2-2-2---
E--------------------------------
Guitar 2 (Main Riff Ends)
e--------------------------------
B--7-6--7-6--7-6--7-6--7-6--7-6--
G-----6----6----6----6----6----6-
D--------------------------------
A--------------------------------
E--------------------------------

Verse (Guitar 2 plays Main Riff, repeated as many times necessary)
Guitar 1
e----------------------------------------------------------------------------
B----------------------------------------------------------------------------
G--8---8-8-8-8--8--8-8-8-8--4---4-4-4-4--4--4-4-4-4--6---6-6-6-6--6--6-6-6-6-
D--8---8-8-8-8--8--8-8-8-8--4---4-4-4-4--4--4-4-4-4--6---6-6-6-6--6--6-6-6-6-
A--6---6-6-6-6--6--6-6-6-6--2---2-2-2-2--2--2-2-2-2--4---4-4-4-4--4--4-4-4-4-
E----------------------------------------------------------------------------

Verse (con't)
Guitar 1
e---------------------------
B---------------------------
G--4---4-4-4-4--4--4-4-4-4--
D--4---4-4-4-4--4--4-4-4-4--
A--2---2-2-2-2--2--2-2-2-2--
E---------------------------

Chorus
Guitar 1
e----------------------------------------------------------------------------
B----------------------------------------------------------------------------
G-3~-----------------6~-------------------6~-------------------4~------------
D-4~-----------------6~-----------6-6-6--66~---------6-6-6---64~------4-4-4-
A-4~---------4-4-----4~-----------4-4-4--44~---------4-4-4---42~------2-2-2-
E-2~---------2-2-------------------------------------------------------------
Guitar 2
e------2~--------------------------------------------------------------------
B--------2~--------------------6~----------------6~--------------------4~----
G----------3~--------------------6~----------------6~--------------------4~--
D----------------------------------6~----------------6~--------------------4~
A----------------------------------------------------------------------------
E----------------------------------------------------------------------------
Repeat Chorus

1st Solo (Guitar 2 plays Main Riff, repeated as many times necessary)
Guitar 1
e----------------------------------------------------------------------------
B----------------------------------------------------------------------------
G--8---8-8-8-8--8--8-8-8-8--4---4-4-4-4--4--4-4-4-4--6---6-6-6-6--6--6-6-6-6-
D--8---8-8-8-8--8--8-8-8-8--4---4-4-4-4--4--4-4-4-4--6---6-6-6-6--6--6-6-6-6-
A--6---6-6-6-6--6--6-6-6-6--2---2-2-2-2--2--2-2-2-2--4---4-4-4-4--4--4-4-4-4-
E----------------------------------------------------------------------------
Guitar 3
e----------------------------------------------------------------------------
B----------------------------------------------------------------------------
G--8-8-8-8-8-8-8-8-8-10-11-13--11--------------------------------------------
D--x-x-x-x-x-x-x-x-x--x--x--x---x--------------------------------------------
A--6-6-6-6-6-6-6-6-6--8--9-11---9--------------------------------------------
E-------------------------------------------1-2/4/6-4---4-3-1------------1--

1st Solo (con't)
Guitar 1
e---------------------------
B---------------------------
G--4---4-4-4-4--4--4-4-4-4--
D--4---4-4-4-4--4--4-4-4-4--
A--2---2-2-2-2--2--2-2-2-2--
E---------------------------
Guitar 3
e--------------------------
B--------------------------
G--------------------------
D--------------------------
A--------------------------
E--2/4/6-----6/(7)/9~------

Verse 2 (Guitar 2 plays Main Riff, repeated as many times necessary)
Guitar 1
e----------------------------------------------------------------------------
B----------------------------------------------------------------------------
G--8~-----------------------4~-----------------------------------------------
D--8~---------------------84~----------------------4/6-6-6-6-6-6-6-6-6-6-6--
A--6~---------------------62~----------------------2/4-4-4-4-4-4-4-4-4-4-4--
E----------------------------------------------------------------------------
pm - - - - - - - - - - -
Guitar 3
e----------------------------------------------------------------------------
B----------------------------------------------------------------------------
G----------------------------------------------------------------------------
D-8-8-8-8-8-8-8-8-8-8-8-8-8-4-4-4-4-4-4-4-4-4-4-4-4-4-6-6-6-6-6-6-6-6-6-6-6--
A-6-6-6-6-6-6-6-6-6-6-6-6-8-2-2-2-2-2-2-2-2-2-2-2-2-2-4-4-4-4-4-4-4-4-4-4-4--
E----------------------------------------------------------------------------
pm- - - - - - - - - - - - - - - - - - - - - - - - - - - - - - - - - - - - -

Verse 2 (con't)
Guitars 1&3
e-----------------------------
B-----------------------------
G-----------------------------
D-6-4-4-4-4-4-4-4-4-4-4-4-4-4-
A-4-2-2-2-2-2-2-2-2-2-2-2-2-2-
E-----------------------------
pm- - - - - - - - grad. lift pm

Repeat Chorus

Bridge
Guitar 1 (Slight Distortion)
e----------------------------------------------------------------------
B------4---2--------4p2-4p2-------2------4---2--------4p2-4p2-------2--
G--4-4---4---4-4-4---------4--4-4----4-4---4---4-4-4---------4--4-4----
D----------------------------------------------------------------------
A----------------------------------------------------------------------
E----------------------------------------------------------------------
| pm- - - - - - - - - - - - - - - - - - - - |
Guitar 2
e----------------------------------------------------------------------
B----------------------------------------------------------------------
G--4~--------------------------------4~--------------------------------
D--4~--------------------------------4~--------------------------------
A--2~--------------------------------2~------2/4----2-----------------
E----------------------------------------------------------------------



2nd Solo (Not Exact Timing or Strumming shown)
Guitar 1 (with Delay)
e-----------------------------------------------------------------------
B--14---------------------14p12----------------------14---------------
G--------------------------------13--11---------------------------------
D-----------------------------------------------------------------------
A-----------------------------------------------------------------------
E-----------------------------------------------------------------------
Guitar 2
e-----------------------------------------------------------------------
B-----------------------------------------------------------------------
G--8-8-8-8-8-8-8-8-8-10-11-13--11---------------------------------------
D--x-x-x-x-x-x-x-x-x--x--x--x---x---------------------------------------
A--6-6-6-6-6-6-6-6-6--8--9-11---9---------------------------------------
E-------------------------------------------1-2/4/6-4---4-3-1-------1--

2nd Solo (con't) (Guitar 2 plays Main Riff repeated as many times as
Guitar 1 nescessary)
e-----------------------------------------------------------------------
B---------14p12--------------------14--------------------------14p12---
G-------------------13~-----------------------------------------------13
D-----------------------------------------------------------------------
A-----------------------------------------------------------------------
E-----------------------------------------------------------------------
Guitar 2
e-----------------------------------------------------------------------
B-----------------------------------------------------------------------
G---------------------------------8-8-8-8-8-8-8-15-15-13-13-11-11-11/13
D---------------------------------x-x-x-x-x-x-x--x--x--x--x--x--x--x--x-
A---------------------------------6-6-6-6-6-6-6-13-13-11-11--9--9--9/11
E-2/4/64--------6/(7)/9~-----------------------------------------------
Guitar 3
e-----------------------------------------------------------------------
B-----------------------------------------------------------------------
G--8---8-8-8-8--8--8-8-8-8--8-8-8---8-8-8-8--8--8-8-8-8--8-8-4---4-4-4-4
D--8---8-8-8-8--8--8-8-8-8--8-8-8---8-8-8-8--8--8-8-8-8--8-8-4---4-4-4-4
A--6---6-6-6-6--6--6-6-6-6--6-6-6---6-6-6-6--6--6-6-6-6--6-6-2---2-2-2-2
E-----------------------------------------------------------------------

2nd Solo (con't)
Guitar 1
e-----------------------------------------------------------------------
B-------------------14---------------------8p6-------------------------
G-11-------------------------------------------8p6---------8~-----------
D--------------------------------------------------8p6-6h8--------------
A-----------------------------------------------------------------------
E-----------------------------------------------------------------------
Guitar 2
e-----------------------------------------------------------------------
B-----------------------------------------------------------------------
G11-11-11-11-13-15-13-13-13-13-11-11-10-10-8-8-8-10-10-10-11-11-13-13-13
D-x--x--x--x--x--x--x--x--x--x--x--x--x--x-x-x-x--x--x--x--x--x--x--x--x
A-9--9--9--9-11-13-11-11-11-11--9--9--8--8-6-6-6--8--8--8--9--9-11-11-11
E-----------------------------------------------------------------------
Guitar 3
e----------------------------------------------------------------------
B----------------------------------------------------------------------
G--4--4-4-4-4--4-6---6-6-6-6--6--6-6-6-6--4---4-4-4-4--4--4-4---4-4-4--
D--4--4-4-4-4--4-6---6-6-6-6--6--6-6-6-6--4---4-4-4-4--4--4-4---4-4-4--
A--2--2-2-2-2--2-4---4-4-4-4--4--4-4-4-4--2---2-2-2-2--2--2-2---2-2-2--
E----------------------------------------------------------------------

2nd Solo (con't)
Guitar 1
e--------------------------
B--------7---7---7h9-11~---
G-----8---8---8------------
D--------------------------
A--------------------------
E--------------------------
Guitar 2
e--------------------------
B--------------------------
G-13-13-13-13-13-13-13-13~-
D--x--x--x--x--x--x--x--x--
A-11-11-11-11-11-11-11-11~-
E--------------------------
Guitar 3
e--------------------------
B--------------------------
G-4------------------------
D-4------4-4-4-4-4-4-4-4---
A-2------2-2-2-2-2-2-2-2---
E--------------------------

Verse 3
Guitar 1
e----------------------------------------------------------------------------
B----------------------------------------------------------------------------
G--8~-----------------------4~-----------------------------------------------
D--8~---------------------84~----------------------4/6-6-6-6-6-6-6-6-6-6-6--
A--6~---------------------62~----------------------2/4-4-4-4-4-4-4-4-4-4-4--
E----------------------------------------------------------------------------
pm - - - - - - - - - - -
Guitar 1
e--------------------------------
B--------------------------------
G-----------------------------4x-
D-6-4-4-4-4-4-4-4-4-4-4-4-4-4-4x- - Pause
A-4-2-2-2-2-2-2-2-2-2-2-2-2-2-2x-
E--------------------------------
pm- - - - - - - - grad. lift pm



Chorus, Pickscrape, Then...
Final Chorus
Guitar 1
e----------------------------------------------------------------------------
B----------------------------------------------------------------------------
G-3~-----------------6~-------------------6~-------------------4~------------
D-4~-----------------6~-----------6-6-6--66~---------6-6-6---64~------4-4-4-
A-4~---------4-4-----4~-----------4-4-4--44~---------4-4-4---42~------2-2-2-
E-2~---------2-2-------------------------------------------------------------
Guitar 2
e------2~--------------------------------------------------------------------
B--------2~--------------------6~----------------6~--------------------4~----
G----------3~--------------------6~----------------6~--------------------4~--
D----------------------------------6~----------------6~--------------------4~
A----------------------------------------------------------------------------
E----------------------------------------------------------------------------
Guitar 3
e--6--4--6--2---2----6--4--6--2-----2-----6--4--6--2-----2----6--4--6--2----2
B-------------2-------------------2--------------------2------------------2--
G----------------------------------------------------------------------------
D----------------------------------------------------------------------------
A----------------------------------------------------------------------------
E----------------------------------------------------------------------------

Another Pickscrape, and Repeat

Outro (After Final Chorus)
Guitars 1&2
e----------------------------------------------------------------------------
B----------------------------------------------------------------------------
G----------------------6~-------------------6~------------------4~-----------
D--4~------------------6~-------------------6~----------------84~-----------
A--4~------------------4~-------------------4~----------------62~-----------
E--2~------------------------------------------------------------------------
Guitar 3
e--6--4--6--2-----2----6--4--6--2-----2-----6--4--6--2-----2-----------------
B--------------2-------------------2--------------------2-------2-2h4~-------
G----------------------------------------------------------------------------
D----------------------------------------------------------------------------
A----------------------------------------------------------------------------
E----------------------------------------------------------------------------

All guitars fade out
The Ataris
The Boys of Summer (Don Henley cover)
So Long, Astoria (2003)
23/05/03 - about teatime.
Tabbed by: Andy (I_Remain_in_Shadows_Growing_Wings@hotmail.com)

Nice little ditty off the new Ataris album, but I couldn't find a single tab for
it, so I decided to make my own. Why? 'cause I have nothing else to do (hurray
for exam time!) and want to see if I can completely deconstruct the whole thing by ear :)


This song is basically a two guitar,two chord pattern song, but in true Kris Roe
style, it has some third/fourth guitar riffs and augmentations to make it just
that little more interesting, so I'll arrange it into song sections, and label
any parts that come up more than once as PATTERNS (chords) or RIFFS. It may seem
a little confusing, but I really triedto make this tab as complete as possible,
so you don't need to worry about some of the stuff in here...just listen to the
music and use yer head :)

KEY
~ Let Ring
h Hammer on
p Pull off
PM Palm Mute
/ Slide
x Mute (not PM)
-------------------------------------------------------------------------------

MAIN CHORD PATTERNS
-------------------------------------------------------------------------------
Intro/Verse Chords (PATTERN 1) Chorus/Outro Chords (PATTERN 2)
D# B C# B F# C# B
e|--------------| e|-------------|
B|--------------| B|-------------|
G|-8------------| G|----6--6-----|
D|-8--9--11--9--| D|-4--6--6--9--|
A|-6--9--11--9--| A|-4--4--4--9--|
E|----7---9--7--| E|-2--------7--|

===============================================================================
INTRO

Guitar 1 - PATTERN 1, with two D# chords at start, let all chords ring, and some feedback
Guitar 2 - first section follwed by RIFF 1

D# RIFF 1
e|-------------| e|-------------------------|
B|-------------| B|-7-6----7-6----7-6---etc-|
G|-8~------6---| G|-----7------7------7-----|
D|-8---6h8---8-| D|-------------------------|
A|-6-----------| A|-------------------------|
E|-------------| E|-------------------------|

-------------------------------------------------------------------------------
VERSE 1

Guitar 1 - PATTERN 1
Guitar 2 - RIFF 1

-------------------------------------------------------------------------------
CHORUS

Guitar 1 - PATTERN 2 twice
Guitar 2 - RIFF 2 twice (RIFF 2 is basically notes from the full (major)chords of
PATTERN 2, so feel free to mess with it)

RIFF 2
e|-2-------------------------------------|
B|---2-----------------------------------|
G|------6------6-------------------------|
D|--------6------6------9-9-9-9-9-11-9-8-|
A|----------4------4----x-x-x-x-x--x-x-x-|
E|----------------------7-7-7-7-7--9-7-6-|

-------------------------------------------------------------------------------
BRIDGE FROM CHORUS TO VERSE 2

Guitar 1 - PATTERN 1
Guitar 2 - RIFF 1
Guitar 3 - RIFF 3

RIFF 3
e|-----------------------------------------------------------|
B|-----------------------------------------------------------|
G|-8~--8/10/11/13/11-11-10/11------------------------------6-|
D|-x---x/-x/-x/-x/-x--x--x/-x--4/6/8/6~-4/3--3-3-3/4/6/8/4-x-|
A|-6---6/-8/-9/11--9--9--8/-9--x/x/x/x--x/x--x-x-x/x/x/x/x-4-|
E|-----------------------------2/4/6/4--2/1--1-1-1/2/4/6/2---|

-------------------------------------------------------------------------------
VERSE 2

Guitar 1 - PATTERN 1, palm muted all the way through
Guitar 2 - RIFF 1
Guitar 3 - PATTERN 1, let chords ring (for interest's sake!)

-------------------------------------------------------------------------------
CHORUS 2

Guitar 1 - PATTERN 2 twice
Guitar 2 - RIFF 2 twice

-------------------------------------------------------------------------------
BRIDGE PART 1

Guitar 1 -

e|---------------|
B|---------------|
G|---------------|
D|-9~---9~--11/9-|
A|-9----9----x/x-|
E|-7----7----9/7-|

Guitar 2 - ALL PM

e|---------------------------------------------------|
B|---------------------------------------------------|
G|---8-8-6-6-----8-x-8-6-------8-8-6-6-----8-x-8-6---|
D|-9---------9-9---------9---9---------9-9---------9-|
A|---------------------------------------------------|
E|---------------------------------------------------|

e|-------------------------------------------------|
B|-------------------------------------------------|
G|---8-8-6-6-----8-x-8-6-------8-8-6-6-----8-x-8-6-|
D|-9---------9-9---------9---9---------9-9---------|
A|-------------------------------------------------|
E|-------------------------------------------------|

-------------------------------------------------------------------------------
BRIDGE PART 2

Guitar 1 - PATTERN 1 twice, let ring first time round.
Guitar 2 - RIFF 1
Guitar 3 - RIFF 3, then:

e|-------------------------------------------------------------|
B|-------------------------------------------------------------|
G|-18(repeated/quickly)-16/15-13-13/15/11~--11/13/15/13~-11/10-|
D|--x--------------------x/-x--x--x/-x/-x----x/-x/-x/-x---x/-x-|
A|-16-------------------14/13-11-11/13/-9----9/11/13/11---9/-8-|
E|-------------------------------------------------------------|

e|--------------------------------|
B|--------------------------------|
G|-10/11/13/18(repeated/quickly)--|
D|--x/-x/-x/-x--------------------|
A|--8/-9/11/16--------------------|
E|--------------------------------|

Guitar 4(!) - This is played with a delay effect, at least for the slides down the string.

e|---------------------------------------------------------------------------------------|
B|-14/--14p11-----14/--11p9-----14/--14p11-----11p9--------------------------------------|
G|------------13---------------------------13--------10-10-10h11p10----10h11p10----------|
D|------------------------------------------------------------------11----------11-11/13-|
A|---------------------------------------------------------------------------------------|
E|---------------------------------------------------------------------------------------|

e|------------------------------|
B|------------------------------|
G|-------11-13-----11-13-13/15~-|
D|-13-13--------13--------------|
A|------------------------------|
E|------------------------------|

-------------------------------------------------------------------------------
Verse 3

Guitar 1 - PATTERN 1, first two chords let ring, second two PM

-------------------------------------------------------------------------------
CHORUS 3

Guitar 1 - PATTERN 2 four times
Guitar 2 - RIFF 2 four times
Guitar 3, rest two bars, then this twice (with brackets both times)

RIFF 4
e|-6---6--------6---6--------6---6---------------------------|
B|---9---7---7----9---7---7----9---7---7------7-----(--7-9-)-|
G|---------6------------6------------6----6h8---8~--(8-----)-|
D|-----------------------------------------------------------|
A|-----------------------------------------------------------|
E|-----------------------------------------------------------|

-------------------------------------------------------------------------------
Outro

Guitar 1 - PATTERN 2 once
Guitar 2/3 whatever - RIFF 4 once without brackets

-------------------------------------------------------------------------------

Well, there you have it. I think it's all pretty much correct and has every part;
it's pretty exhaustive...well, it was pretty exhausting at least. Enjoy
yourselves, girls and boys, and good luck! (not that y'all need it!) E-mail me if
there's something wrong with it, or with any criticism, praise, or foamy-mouthed hatred.

~BE EXCELLENT TO EACH OTHER AND PARTY ON~

Andy
www.silverbolt.tk
I_Remain_in_Shadows_Growing_Wings@hotmail.com