Ataris — The Radio Still Sucks

На этой странице Вы можете ознакомиться с 2 версиями подбора аккордов для гитары к песне "The Radio Still Sucks" группы (исполнителя) "Ataris".

T1: justin, justinnicholson@worldnet.att.net, ataris, the radio still
sucks

S1:
E-----------------------------------------------------------------------------
B---6-6-6-6-6-6----3-3-3-3-3-3-3----------------------------------------------
G---6-6-6-6-6-6----3-3-3-3-3-3-3----------------------------------------------
D---6-6-6-6-6-6----3-3-3-3-3-3-3-----3-3-3-3-3------4-----------------6-------
A---4-4-4-4-4-4----1-1-1-1-1-1-1-----3-3-3-3-3------4-----------------6-------
E------------------------------------1-1-1-1-1------2-----------------4-------
of beck and 3 11 and marilyn manson i wish break his fucking
neck
someone would

E-----------------------------------------------------------------------------
B---6-6-6-6-6-6----3-3-3-3-3-3-3----------------------------------------------
G---6-6-6-6-6-6----3-3-3-3-3-3-3----------------------------------------------
D---6-6-6-6-6-6----3-3-3-3-3-3-3---------3-3-3-3-3------4-------------6-------
A---4-4-4-4-4-4----1-1-1-1-1-1-1---------3-3-3-3-3------4-------------6-------
E----------------------------------------1-1-1-1-1------2-------------4-------
bush and lame ass oasis and talk about pretentious england off the
map
why dont they
just blow


E-----------------------------------------------------------------------------
B-----------------------------------------------------------------------------
G------------------------6-6-6----3-3-3----------------------6-6-6-6-6---6----
D---4-4-4----6-6-6-------6-6-6----3-3-3----4-4-4----6-6-6----6-6-6-6-6-6-6-6--
A---4-4-4----6-6-6-------4-4-4----1-1-1----4-4-4----6-6-6----4-4-4-4-4-6-4-6--
E---2-2-2----4-4-4-------------------------2-2-2----4-4-4--------------4---4--
every now and then i turn it on again but its plain to see that
the radio still sucks

E-----------------------------------------------------------------------------
B-----------------------------------------------------------------------------
G------------------------6-6---4---3-------------------------6----------------
D---4-4-4----6-6-6-------6-6---4---3-------4-4-4----6-6-6----6----------------
A---4-4-4----6-6-6-------4-4---2---1-------4-4-4----6-6-6----4----------------
E---2-2-2----4-4-4-------------------------2-2-2----4-4-4---------------------
every now and then i turn it on again but its plain to see that
the radio still sucks
Song:  THe RADio STiLL sUCKS
Band: THe AtARIS
Album: SHorT MUSIc FOR SHorT pEOPLe
tabbed by:jUSTINsLATER punkdork@hotmail.com

pART onE.
G:---------------------------------------------------------------
D:---------------------------------------------------------------
A:---4>-----1>--------------------------------------------
E:----------------1>----2222---4---------------------------

pARt tWO.
G:---------------------------------------------------------------
D:---------------------------------------------------------------
A:-----------444---111------------444444-----4--------------------
E:-222--444-------------222--444----------4-----4---------------

hERE iS THE oRDER:
PaRT ONE x2
pARt TWo x2
tHE ONLY THinG IS LEaVE OUT tHE LAST 3 nOTeS ON THe THE lAST pART.
SEE yA
jUSTIN.A.sLATeR