Ataris — Your Boyfriend Sucks

На этой странице Вы можете ознакомиться с 2 версиями подбора аккордов для гитары к песне "Your Boyfriend Sucks" группы (исполнителя) "Ataris".

The Ataris Your Boy Friend Sucks.
Tabbed by Rico NFGRules@hotmail.com.

*the end of the verse riff before the pre-chorus ends bouncing back and forth
on the 3rd and 2nd frets of the d-string. *hopefully this has helped you a bit
Start with a mad slide from the 8th to the 3rd fret on the A string (listen for timing/style)

INTRO / VERSE
G|---------------------------------------------------------------------------|
D|-----------2----5----2----------2--5--2------------------------------------|
A|-----3--3-----------------3--3---------------------------------------------|
E|---------------------------------------------------------------------------|

G|---------------------------------------------------------------------------|
D|-------------6----9---6----9----6------------------------------------------|
A|-----7--7------------------------------7----5------------------------------|
E|---------------------------------------------------------------------------|

G|---------------------------------------------------------------------------|
D|---------------------------------------------------------------------------|
A|-------------5----7----5----------------5---3---2--------------------------|
E|----5---5----------------------3---3---------------------------------------|

G|---------------------------------------------------------------------------|
D|-------------0---3---2---3---2---0-----------------------------------------|
A|----------------------------------------2----------------------------------|
E|----1---1------------------------------------------------------------------|

INTRO / VERSE (variation 2)

G|---------------------------------------------------------------------------|
D|-----------2----5----2----------2--5--2------------------------------------|
A|-----3--3-----------------3--3---------------------------------------------|
E|---------------------------------------------------------------------------|

G|----------------------------9---7---5---4----------------------------------|
D|-------------6----9---6----------------------------------------------------|
A|-----7--7------------------------------------------------------------------|
E|---------------------------------------------------------------------------|

G|---------------------------------------------------------------------------|
D|---------------------------------------------------------------------------|
A|---------------------------------------------------------------------------|
E|-----5-----------------5--5---3-------------3--3--1-----4--4--3------------|

Start the show...
G|---------------------------------------------------------------------------|
D|----------------------2---2------------------------------------------------|
A|----2---2---3---3------------1---1-----3--3---6---5---3-3-3---0-0-0--------|
E|---------------------------------------------------------------------------|

Breakdown (timing varies, correct notes however)
G|---------------------------------------------------------------------------|
D|---------------------------------------------------------------------------|
A|---------------------------------------------------------------------------|
E|---5-----4----3----2-----1-------3-----------------------------------------|

:: Ultimate Guitar Archive ::
http://www.ultimate-guitar.com
The Ataris - Your Boyfriend Sucks
Intro:(Acoustic)
e|--------------------------------------------------------------------|
B|--------------------------------------------------------------------|
G|--------------------6--------------4--------------------------------|
D|2-------------------6--------------4---------------4---6-----7------|
A|2-------------------4--------------2---------------4---6-----7------|
E|0--------------------------------------------------2---4-----5------|
Your better off without him, don't call him, he's breaking your heart
Verse:
e|--------------------------------------------------------------------|
B|--------------------------------------------------------------------|
G|-------------------------6-----------------4------------------------|
D|2------------------------6-----------------4------------------------|
A|2------------------------4-----------------2------------------------|
E|0-------------------------------------------------------------------|
He's hanging with your bestfriend and your waiting there
e|--------------------------------------------------------------------|
B|--------------------------------------------------------------------|
G|--------------------------------------------------------------------|
D|-------4--6--7------------------------------------------------------|
A|-------4--6--7------------------------------------------------------|
E|-------2--4--5------------------------------------------------------|
It's tearing you apart.
e|--------------------------------------------------------------------|
B|--------------------------------------------------------------------|
G|------------------6--------------4----------------------------------|
D|2-----------------6--------------4----------------------------------|
A|2-----------------4--------------2----------------------------------|
E|0-------------------------------------------------------------------|
He lied to you a thousand times, when I was there,
e|--------------------------------------------------------------------|
B|--------------------------------------------------------------------|
G|--------------------------------------------------------------------|
D|----4--6--7---------------------------------------------------------|
A|----4--6--7---------------------------------------------------------|
E|----2--4--5---------------------------------------------------------|
He kept you waiting.
Chorus:
e|--------------------------------------------------------------------|
B|--------------------------------------------------------------------|
G|--------------------------------------------------------------------|
D|4-------------------6---------------------7-------------------------|
A|4-------------------6---------------------7-------------------------|
E|2-------------------4---------------------5-------------------------|
And I'm still here, waiting there, to catch you if you fall.
e|--------------------------------------------------------------------|
B|--------------------------------------------------------------------|
G|--------------------------------4----8~-----------------------------|
D|4------------6------------------4----8~-----------------------------|
A|4------------6------------------2----6~-----------------------------|
E|2------------4------------------------------------------------------|
I don't know why I care so much, when I shouldn't care at all.
Solo:
e|--------------------------------------------------------------------|
B|--------------------------------------------------------------------|
G|----------------6-6-6-6-6-6-6-6-4-4-4-4-4-4-4-4---------------------|
D|2-2-2-2-2-2-2-2-6-6-6-6-6-6-6-6-4-4-4-4-4-4-4-4-4-6-7--x2-----------|
A|2-2-2-2-2-2-2-2-4-4-4-4-4-4-4-4-2-2-2-2-2-2-2-2-4-6-7---------------|
E|0-0-0-0-0-0-0-0---------------------------------2-4-5---------------|

e|--------------------------------------------------------------------|
B|--------------------------------------------------------------------|
G|-13-13-13-13-13-13-13-13-9-8-8-8-9-8-8-8-8-8-8-11-13-9--------------|
D|--x--x--x--x--x--x--x--x-x-x-x-x-x-x-x-x-x-x-x--x--x-x--------------|
A|-11-11-11-11-11-11-11-11-7-6-6-6-7-6-6-6-6-6-6--9-11-7--------------|
E|--------------------------------------------------------------------|
Verse 2:
e|--------------------------------------------------------------------|
B|--------------------------------------------------------------------|
G|-------------------------6---------4--------------------------------|
D|2------------------------6---------4-----------------4--6--7--------|
A|2------------------------4---------2-----------------4--6--7--------|
E|0----------------------------------------------------2--4--5--------|
Finally got the nerve to tell you, how much you mean to me.
e|--------------------------------------------------------------------|
B|--------------------------------------------------------------------|
G|-----------------------6---------------4----------------------------|
D|2----------------------6---------------4----------------------------|
A|2----------------------4---------------2----------------------------|
E|0-------------------------------------------------------------------|
You said that I was your bestfriend, a real sweet guy,
e|--------------------------------------------------------------------|
B|--------------------------------------------------------------------|
G|--------------------------------------------------------------------|
D|------------4--6--7-------------------------------------------------|
A|------------4--6--7-------------------------------------------------|
E|------------2--4--5-------------------------------------------------|
But that's all I'd ever be.

Repeat Chorus

Outro:
e|--------------------------------------------------------------------|
B|--------------------------------------------------------------------|
G|-------------------------6-6-6-4-4-4-2~----------6-6-6-4-4-4-2~-----|
D|--2~---2~---------2~-----6-6-6-4-4-4-2~---2~-----6-6-6-4-4-4-2~-----|
A|--2~---2~---------2~-----4-4-4-2-2-2-0~---2~-----4-4-4-2-2-2-0~-----|
E|--0~---0~---------0~----------------------0~------------------------|