Atb — 9 Pm Till I Come

На этой странице Вы можете ознакомиться с 2 версиями подбора аккордов для гитары к песне "9 Pm Till I Come" группы (исполнителя) "Atb".

Artist: ATB
Song: 9PM (Till I Come)
Genre: Techno/Rave

E -5-5-7-5-8-8-8-12-10----
B ------------------------
G ------------------------
D ------------------------
A ------------------------
E ------------------------

E ------------8-8-10-8----
B -6-6-8-6-10----------10-
G ------------------------
D ------------------------
A ------------------------
E ------------------------

That's It! The notes repeat throughout the whole song. This version sounds better
than the one I have posted earlier. For all of you techno fans out there, I am
currently working on a few more rave songs. I hope you like them. Have questions?
E-mail me at: betterof@yahoo.com. Thanks, Vadim Bederov.
e:-------5-5/7/5-8-8-8/10/8-3-----
b:--------------------------------
g:--------------------------------
d:--------------------------------
a:--------------------------------
E:--------------------------------