Atkins Chet — Yakety Axe

На этой странице Вы можете ознакомиться с 2 версиями подбора аккордов для гитары к песне "Yakety Axe" группы (исполнителя) "Atkins Chet".

Yakety Axe-aka Benny Hill    Chet Atkins          tabbed by Eric Anderson

This is a faster piece.

u=up stroke everything else is down (d= down as well)
d u d u u u
e------3------------------------------------------------------3------|
B--/8----5--3-------3--5--3----------------------3--5--3------------|
G--------------4--------------4--2--0--0---2--4---------------------|
D-----------------5-------------------------------------------------|
A-------------------------------------------------------------------|
E-------------------------------------------------------------------|
d u d u u u
e------3-------------------------------------------5------|----3--3--------3--3--------3--3--------|
B--/8----5--3-------3--5--3---------3--3/--7----7--3-|------------6/8----------6/8---------6/8--|
G--------------4--------------4--2-----------------------|----------------------------------------|
D-----------------5---------------------------------------|---------------------------------------|
A---------------------------------------------------------|---------------------------------------|
E----------------------------------------------------------|--------------------------------------|

e---3--3------------------------------------------------------------3--5-6-5-----|
B--------5--3-----------------------------------------------3--5----------------|
G---------------4------3/---5--5---3/---5--5---3/--5--5-------------------------|
D------------------5------------------------------------------------------------|
A-------------------------------------------------------------------------------|
E-------------------------------------------------------------------------------|

e----------10--------------12--------------------12--------------|
B---/11------11--12---------12---10-------10---------10---------|
G---------------------12-----------------12-------------12------|
D---------------------------------------------------------------|
A---------------------------------------------------------------|
E---------------------------------------------------------------|
email me with questions or comments, thanks check902@hotmail.com
Eric Anderson
Yakety Axe
u=up stroke everything else is down (d= down as well)
d u d u u u
e------3------------------------------------------------------3---------|
B--/8----5--3-------3--5--3----------------------3--5--3---------------|
G--------------4--------------4--2--0--0---2--4------------------------|
D-----------------5----------------------------------------------------|
A----------------------------------------------------------------------|
E----------------------------------------------------------------------|
d u d u u u
e------3---------------------------------------5----------|----3--3--------3--3--------3--3----------------|
B--/8----5--3-------3--5--3---------3--3/--7----7-3-----|----------6/8----------6/8---------6/8----------|
G--------------4--------------4--2-----------------------|------------------------------------------------|
D-----------------5--------------------------------------|------------------------------------------------|
A--------------------------------------------------------|------------------------------------------------|
E--------------------------------------------------------|------------------------------------------------|

e---3--3------------------------------------------------------------3--5-6-5-------|
B--------5--3-----------------------------------------------3--5------------------|
G---------------4------3/---5--5---3/---5--5---3/--5--5---------------------------|
D------------------5--------------------------------------------------------------|
A---------------------------------------------------------------------------------|
E---------------------------------------------------------------------------------|

e----------10--------------12------------------------------|
B---/11------11--12----------12---10-------10-------------|
G---------------------12-----------------12------12-------|
D---------------------------------------------------------|
A---------------------------------------------------------|
E---------------------------------------------------------|

Eric Anderson