Atreyu — Bleeding Mascara

На этой странице Вы можете ознакомиться с 2 версиями подбора аккордов для гитары к песне "Bleeding Mascara" группы (исполнителя) "Atreyu".

----------------------------------------------------------------------------
Bleeding Mascara - Atreyu
----------------------------------------------------------------------------
Tabbed by: G00berh00t
Email: Zshade505@yahoo.com
**www.ultimateguitar.com**
Tuning: Drop C

Hey guys, right now I got the rhythm part of the song down, but im still working
on the lead. Ill post the rhythm part down now and add the lead when I figure it
out. If you guys know any of the lead parts or have any suggestions just email
me. Thanks, please rate! BTW this is my first tab.
_______________
|~ - Let ring |
|x - Palm mute |
|/ - Slide up |
| - Slide down |
|h - Hammer on |
|p - Pull off |
---------------

[Bass intro, come in second time]

Intro
D|-------------------------------------------------------------------------|
A|-------------------------------------------------------------------------|
F|-------------------------------------------------------------------------|
C|-0~~--3--6--5~~--8~~---0~~--3--6--5----5--3------------------------------|
G|-0~~--3--6--5~~--8~~---0~~--3--6--5----5--3------------------------------|
C|-0~~--3--6--5~~--8~~---0~~--3--6--5----5--3------------------------------|

Verse x2
D|--------------------------------------|----------------------------------|
A|--------------------------------------|----------------------------------|
F|--------------------------------------|----------------------------------|
C|-00--8p7--5p3--00--8p7--5h3--00--8~~--|--1~~-----------------------------|
G|-00--8p7--5p3--00--8p7--5h3--00--8~~--|--1~~-----------------------------|
C|-00--8p7--5p3--00--8p7--5h3--00--8~~--|--1~~-----------------------------|
xx xx xx Second time end on this
D|-------------------------------------------------------------------------|
A|------------------------|------------------------------------------------|
F|-----7/8------11/12-----|-10-10-10-10-10-10-10-10--7--7--7--7--7--7--7--7|
C|-00--x-x--00--x--x--000-|-x--x--x--x--x--x--x--x---x--x--x--x--x--x--x--x|
G|-00--5/6--00--9-/10-000-|-8--8--8--8--8--8--8--8---5--5--5--5--5--5--5--5|
C|-00-------00--------000-|------------------------------------------------|
xx xx xxx Do this 1 time first time, 2 times second time.

Chorus x4 (Not exact strumming)
D|-------------------------------------|-----------------------------------|
A|-------------------------------------|-----------------------------------|
F|-------------------------------------|-----------------------------------|
C|-5-5-5-5--8-8-8-8--0-0-0-0--3-3-3-3--|-5-5-5-5--8-8-8-8------------------|
G|-5-5-5-5--8-8-8-8--0-0-0-0--3-3-3-3--|-5-5-5-5--8-8-8-8------------------|
C|-5-5-5-5--8-8-8-8--0-0-0-0--3-3-3-3--|-5-5-5-5--8-8-8-8------------------|
Forth time end on this
[Repeat Verse]

Rhythm during solo x6
D|-------------------------------------------------------------------------|
A|-------------------------------------------------------------------------|
F|-------------------------------------------------------------------------|
C|-00000-00000--3h6-3h5--0-0-0-0-0-0-0--3h6-3h5----------------------------|
G|-00000-00000--3h6-3h5--0-0-0-0-0-0-0--3h6-3h5----------------------------|
C|-00000-00000--3h6-3h5--0-0-0-0-0-0-0--3h6-3h5----------------------------|
xxxxx xxxxx x x x x x x x

[Repeat Chorus]

Outro
D|-------------------------------------------------------------------------|
A|-------------------------------------------------------------------------|
F|-------------------------------------------------------------------------|
C|-0~~-8~~--5-5-5-5-5-5--3-3-3-3-3-3--5-5-5-5--3-2-0~~---------------------|
G|-0~~-8~~--5-5-5-5-5-5--3-3-3-3-3-3--5-5-5-5--3-2-0~~---------------------|
C|-0~~-8~~--5-5-5-5-5-5--3-3-3-3-3-3--5-5-5-5--3-2-0~~---------------------|

Enjoy the tab, I hope to tab out the lead part soon! Thanks.
(Messed up first time, fixed mistakes on tab)
Atreyu
Bleeding Mascara (Intro)

Tuning: Drop C

Sounds 100% to me. Enjoy. This sounds awesome once you learn it.

Comments, questions, Email me at jonp137@hotmail.com


|-------13-17-13----------13-17-13----------13-17-13----18-17-15-17-15-13-|
|----15----------15----15----------15----15----------15-------------------|
|-14----------------14----------------14----------------------------------|
|-------------------------------------------------------------------------|
|-------------------------------------------------------------------------|
|-------------------------------------------------------------------------|

|-------13-17-13----------13-17-13-------18--17-15-17-|
|----15----------15----15----------15-----------------|
|-14----------------14----------------14--------------|
|-----------------------------------------------------|
|-----------------------------------------------------|
|-----------------------------------------------------|

|-------13-17-13----------13-17-13----------13-17-13----18-17-15-17-15-13-|
|----15----------15----15----------15----15----------15-------------------|
|-14----------------14----------------14----------------------------------|
|-------------------------------------------------------------------------|
|-------------------------------------------------------------------------|
|-------------------------------------------------------------------------|

|-------13-17-13----------13-17-13--------------------13-15-17-|
|----15----------15----15----------15--------------15----------|
|-14----------------14----------------14--12-14-15-------------|
|--------------------------------------------------------------|
|--------------------------------------------------------------|
|--------------------------------------------------------------|

|-------13-17-13----------13-17-13----------13-17-13----18-17-15-17-15-13-|
|----15----------15----15----------15----15----------15-------------------|
|-14----------------14----------------14----------------------------------|
|-------------------------------------------------------------------------|
|-------------------------------------------------------------------------|
|-------------------------------------------------------------------------|

|-------13-17-13----------13-17-13-------18--17-15-17-|
|----15----------15----15----------15-----------------|
|-14----------------14----------------14--------------|
|-----------------------------------------------------|
|-----------------------------------------------------|
|-----------------------------------------------------|

|-------13-17-13----------13-17-13----------13-17-13----------13-17-13-------|
|----15----------15----15----------15----15----------15----15----------15----|
|-14----------------14----------------14----------------14----------------14-|
|----------------------------------------------------------------------------|
|----------------------------------------------------------------------------|
|----------------------------------------------------------------------------|

|-18-17-15-17-15-13-15-13--------------------------------^---^--|
|-------------------------17-14-15-17-18-17-15-17-15-13-15b-15b-|
|---------------------------------------------------------------|
|---------------------------------------------------------------|
|---------------------------------------------------------------|
|---------------------------------------------------------------|

End