Atreyu — Deanne The Arsonist

На этой странице Вы можете ознакомиться с 2 версиями подбора аккордов для гитары к песне "Deanne The Arsonist" группы (исполнителя) "Atreyu".

Atreyu
Butterfly Kisses and Suicide Notes
Deanne the Arsonist


Tabbed by: Devon Marquis
Posted: March 18, 2004
Email: adr_enaline@hotmail.com
AIM: popnshroomz

Tuning: CGCFAD
* Palm Mute
~ Tremolo Pick

This tab should be almost flawless. Listen to the song for timing and rhythm.
Atreyu is a two guitar band, so tabbing their songs by ear can be gruesome at times.
Please rate this tab and email/IM me if you have questions or comments. Cheers!

Intro
1|--------------------------------------------------------|
2|--------------------------------------------------------|
3|--0000-12000-12000-12000--------------------------------|
4|--------------------------------------------------------|
5|--------------------------------------------------------|
6|--------------------------------------------------------|
~~~~ ~~~~~ ~~~~~ ~~~~~

1|--------------------------------------------------------|
2|--------------------------------------------------------|
3|--------------------------------------------------------|
4|--5------1------8------3--------------------------------|
5|--5------1------8------3--------------------------------|
6|--5------1------8------3--------------------------------|


Chorus - 2x -
1|------------------------------------------------------------|
2|------------------------------------------------------------|
3|-----12-12-10-8-5-7-8-7-------------------------------------|
4|--------------------------------5---5-7-8-10-8-7-3-5--------|
5|------------------------------------------------------------|
6|------------------------------------------------------------|

1|--------------------------------------------------------|
2|------------------------------11-10---------------------|
3|--12-12-10-8-10-12-10-----------------12-10-12----------|
4|--------------------------------------------------------|
5|--------------------------------------------------------|
6|--------------------------------------------------------|

Verse 1 - 2x
1|--------------------------------------------------------|
2|--------------------------------------------------------|
3|--------------------------------------------------------|
4|--5-5--0-5-5--0-5-5--0-5-5--0-1-1--0-1-1--0-1-1--0-1-1--|
5|--5-5--0-5-5--0-5-5--0-5-5--0-1-1--0-1-1--0-1-1--0-1-1--|
6|--5-5--0-5-5--0-5-5--0-5-5--0-1-1--0-1-1--0-1-1--0-1-1--|

1---------------------------------------------------------|
2---------------------------------------------------------|
3--------------------------------77777777-88888888--------|
4--0-3-3--0-3-3--0-3-3--0-3-3--0-xxxxxxxx-xxxxxxxx--------|
5--0-3-3--0-3-3--0-3-3--0-3-3--0-55555555-66666666--------|
6--0-3-3--0-3-3--0-3-3--0-3-3--0-00000000-00000000--------|


Chorus - 1x
1|-------------------------------------------------------|
2|-------------------------------------------------------|
3|-----12-12-10-8-5-7-8-7--------------------------------|
4|---------------------------5---5-7-8-10-8-7-3-5--------|
5|-------------------------------------------------------|
6|-------------------------------------------------------|

1|--------------------------------------------------------|
2|--------------------------------11-10-------------------|
3|--12-12-10-8-10-12-10-----------------12-10-12----------|
4|--------------------------------------------------------|
5|--------------------------------------------------------|
6|--------------------------------------------------------|


Verse - 2x, but play alternate ending marked by double asterisk
1|--------------------------------------------------------|
2|--------------------------------------------------------|
3|--------------------------------------------------------|
4|--5-5--0-5-5--0-5-5--0-5-5--0-1-1--0-1-1--0-1-1--0-1-1--|
5|--5-5--0-5-5--0-5-5--0-5-5--0-1-1--0-1-1--0-1-1--0-1-1--|
6|--5-5--0-5-5--0-5-5--0-5-5--0-1-1--0-1-1--0-1-1--0-1-1--|

1---------------------------------------------------------|
2---------------------------------------------------------|
3--------------------------------77777777-88888888--------|
4--0-3-3--0-3-3--0-3-3--0-3-3--0-xxxxxxxx-xxxxxxxx--------|
5--0-3-3--0-3-3--0-3-3--0-3-3--0-55555555-66666666--------|
6--0-3-3--0-3-3--0-3-3--0-3-3--0-00000000-00000000--------|
**
Alternate Verse Ending - 1x Remember to palm mute!
1|--------------------------------------------------------|
2|--------------------------------------------------------|
3|--------------------------------------------------------|
4|--3-3-3-3-3-3-3-3-4-4-4-4-4-4-4----------------|
5|--3-3-3-3-3-3-3-3-4-4-4-4-4-4-4----------------|
6|--3-3-3-3-3-3-3-3-4-4-4-4-4-4-4----------------|
* * * * * * * * *

Verse 2 - 4x
1|-----------------|----------------|------------------------|
2|-----------------|----------------|------------------------|
3|-----5--7--------|----------------|------------------------|
4|--7--7--8--7-----|----7---10-8-7--|---7-----8-7------------|
5|--8--------8-----|--5---5---------|--5--5-------8----------|
6|-----------------|----------------|------------------------|


Bridge - 2x
1|--------------------------------------------------------|
2|--------------------------------------------------------|
3|--------------------------------------------------------|
4|--6666666666666666-1111111111111111-4444444444444444--0-|
5|--6666666666666666-1111111111111111-4444444444444444--0-|
6|--6666666666666666-1111111111111111-4444444444444444--0-|


Finger Tapping - I had a little trouble with this. Play around with it
and you might get it right. The best thing to do is listen and play at the same time.
1|-------------|-------------|-----------------|----------------|
2|-------------|-------------|-----------------|----------------|
3|----456------|----789------|---- 121314------|--151617--------|
4|-------------|-------------|-----------------|----------------|
5|-------------|-------------|-----------------|----------------|
6|-------------|-------------|-----------------|----------------|
8x 8x 16x 8x

Verse 2 - 4x
1|-----------------|----------------|------------------------|
2|-----------------|----------------|------------------------|
3|-----5--7--------|----------------|------------------------|
4|--7--7--8--7-----|----7---10-8-7--|---7-----8-7------------|
5|--8--------8-----|--5---5---------|--5--5-------8----------|
6|-----------------|----------------|------------------------|

This is a pretty cool song by Atreyu. Probably the hardest thing about it is keeping up
with the rhythm. Other than that, it's fairly easy if you've benn playin for a while.
Don't forget to rate my tab. I can tab by ear so anything you special request by email,
I'll see what I can do. The only catch is for one of my tabs, I want one of your tabs
(they have to be accurate and from a band I like). This is my first tab posting on UG's
website, but I'll have a lot more later so check back soon. Laterz
BAND: Atreyu
SONG: Deanne the Arsonist

TABBED BY: Drew
EMAiL: funeral_in_carpathia13@yahoo.com

TUNNING: Drop D - Distorted

KEY: * Palm Mute
~ Tremolo Pick

This is like 100% except the solo might be off, but the right idea

INTRO
1|--------------------------------------------------------|
2|--------------------------------------------------------|
3|--0000-12000-12000-12000--------------------------------|
4|--------------------------------------------------------|
5|--------------------------------------------------------|
6|--------------------------------------------------------|
~~~~ ~~~~~ ~~~~~ ~~~~~

1|--------------------------------------------------------|
2|--------------------------------------------------------|
3|--------------------------------------------------------|
4|--5------8------3------3--------------------------------|
5|--5------6------1------3--------------------------------|
6|--3------6------1------1--------------------------------|


Chorus - 2x - G5 powerchord in backround
1|-----------------------|--------------------------------|
2|-----------------------|--------------------------------|
3|-----12-10-8-5-7-8-7---|--------------------------------|
4|---------------------5-|--5-7-8-9-11-8-9----------------|
5|-----------------------|--------------------------------|
6|-----------------------|--------------------------------|

1|--------------------------------------------------------|
2|------------------------11-10---------------------------|
3|--12-12-10-8-10-12-10---------12-10-12------------------|
4|--------------------------------------------------------|
5|--------------------------------------------------------|
6|--------------------------------------------------------|

Verse 1 - listen for rythem - 2x
1|--------------------------------------------------------
2|--------------------------------------------------------
3|--------------------------------------------------------
4|--5-5--0-5-5--0-5-5--0-5-5--0-8-8--0-8-8--0-8-8--0-8-8--
5|--5-5--0-5-5--0-5-5--0-5-5--0-6-6--0-6-6--0-6-6--0-6-6--
6|--3-3--0-3-3--0-3-3--0-3-3--0-6-6--0-6-6--0-6-6--0-6-6--

1---------------------------------------------------------|
2---------------------------------------------------------|
3---------------------------------------------------------|
4--0-3-3--0-3-3--0-3-3--0-3-3--0-77777777-88888888--------|
5--0-3-3--0-3-3--0-3-3--0-3-3--0-55555555-66666666--------|
6--0-1-1--0-1-1--0-1-1--0-1-1--0-55555555-66666666--------|


Chorus - 1x
1|-----------------------|--------------------------------|
2|-----------------------|--------------------------------|
3|-----12-10-8-5-7-8-7---|--------------------------------|
4|---------------------5-|--5-7-8-9-11-8-9----------------|
5|-----------------------|--------------------------------|
6|-----------------------|--------------------------------|

1|--------------------------------------------------------|
2|------------------------11-10---------------------------|
3|--12-12-10-8-10-12-10---------12-10-12------------------|
4|--------------------------------------------------------|
5|--------------------------------------------------------|
6|--------------------------------------------------------|


Verse 1 - listen to some for rythem - 2x
1|--------------------------------------------------------
2|--------------------------------------------------------
3|--------------------------------------------------------
4|--5-5--0-5-5--0-5-5--0-5-5--0-8-8--0-8-8--0-8-8--0-8-8--
5|--5-5--0-5-5--0-5-5--0-5-5--0-6-6--0-6-6--0-6-6--0-6-6--
6|--3-3--0-3-3--0-3-3--0-3-3--0-6-6--0-6-6--0-6-6--0-6-6--

1|--------------------------------------------------------|
2|--------------------------------------------------------|
3|--------------------------------------------------------|
4|--0-3-3--0-3-3--0-3-3--0-3-3--0-77777777-88888888-------|
5|--0-3-3--0-3-3--0-3-3--0-3-3--0-55555555-66666666-------|
6|--0-1-1--0-1-1--0-1-1--0-1-1--0-55555555-66666666-------|

Second Time
1|--------------------------------------------------------|
2|--------------------------------------------------------|
3|--------------------------------------------------------|
4|--0-3-3--0-3-3--0-3-3--0-3-3--0-77777777-88888888-------|
5|--0-3-3--0-3-3--0-3-3--0-3-3--0-55555555-66666666-------|
6|--0-1-1--0-1-1--0-1-1--0-1-1--0-55555555-66666666-------|
*** *** *** ***

Verse 2 - 4x
1|--------------|----------------|------------------------|
2|--------------|----------------|------------------------|
3|-----5--7-----|----------------|------------------------|
4|--7--7--8--7--|----7---10-8-7--|----7---8-7-------------|
5|--8--------8--|--5---5---------|--5---5-----8-----------|
6|--------------|----------------|------------------------|


Break - 2x
1|--------------------------------------------------------|
2|--------------------------------------------------------|
3|--------------------------------------------------------|
4|--6666666666666666-9999999999999999-3333333333333333--6-|
5|--6666666666666666-7777777777777777-3333333333333333--4-|
6|--4444444444444444-7777777777777777-1111111111111111--4-|


Solo - Tapping - each bar
1|-----------|-----------|--------------||----------------|
2|----456----|----789----|----101112----||----131415------|
3|-----------|-----------|--------------||----------------|
4|-----------|-----------|--------------||----------------|
5|-----------|-----------|--------------||----------------|
6|-----------|-----------|--------------||----------------|
4x 4x 8x 4th time 8x

Verse 2 - 4x
1|--------------|----------------|------------------------|
2|--------------|----------------|------------------------|
3|-----5--7-----|----------------|------------------------|
4|--7--7--8--7--|----7---10-8-7--|----7---8-7-------------|
5|--8--------8--|--5---5---------|--5---5-----8-----------|
6|--------------|----------------|------------------------|


That should be it, comments, insults, praise appreciated
Atreyu is a great band that deserves much credit