Atreyu — Right Side Of The Bed

На этой странице Вы можете ознакомиться с 2 версиями подбора аккордов для гитары к песне "Right Side Of The Bed" группы (исполнителя) "Atreyu".

Atreyu RocKs!!
intro

D----------------------------------------------------------------------------|
A----------------------------------------------------------------------------|
F-------------7----5-----3---3---3---3-----5----5----------------------------|
C---0---0-----7----5-----3---3---3---3-----5----5----------------------------|
G---0---0-----5----3-----1---1---1---1-----3----3----------------------------|
C---0---0--------------------------------------------------------------------|


-----------------------------------------------------------------------------|
-----------------------------------------------------------------------------|
---------------7----5-------10----10---10----10-----3---3--------------------|
---0---0-------7----5-------10----10---10----10-----3---3--------------------|
---0---0-------5----3-------8-----8-----8-----8-----1---1--------------------|
---0---0---------------------------------------------------------------------|

D----------------------------------------------------------------------------|
A----------------------------------------------------------------------------|
F-------------7----5-----3---3---3---3-----5----5----------------------------|
C---0---0-----7----5-----3---3---3---3-----5----5----------------------------|
G---0---0-----5----3-----1---1---1---1-----3----3----------------------------|
C---0---0--------------------------------------------------------------------|


----------------------------------------------------------------------------|
----------------------------------------------------------------------------|
----------------------------------------------------------------------------|
---0---------2---3----2----0-----5-----3-----2----3---2----0----------------|
---0-----0------------------------------------------------------------------|
---0------------------------------------------------------------------------|


This is the intro of the song it sounds good to me, I'm working on the whole
is my first tab)
Grtz Jelle
jelle313@hotmail.com
Band:Atreyu
Song:Right Side of the Bed
Album:The curse
Tuning:CGCFAD (drop C)
Tabber:Eric Caldwell
Notes:I have a live video for this song and it has a shot on the lead guitarest
the time mostly so I watched him play it so I'm pretty sure these are 100%
I'm only putting up of the song for now but I have most of the solo figured
but so I'll put that up soon got any questions or comments feel free to
e-mail me at wetwilly1015@aol.com...Atreyu fucking rules

**********
* KEY *
**********
PM...= Palm Mute
*= Artificial Harmonic
v= vibrato
/= slide down
h= hammer on
p= pull off
Intro 1
D|---------------------------------------------------|
A|------6-5-----------------6-5----------------------|
F|------5-5-----------------5-5--10-10---------------|
C|-0000-3-3--3-3-5-5-5-0000-3-3--10-10--88-----------|
G|-0000------1-1-3-3-3-0000-------8-8---88-----------|
C|-0000----0-----------0000-----0-------88-----------|
PM .... . .... .
Intro 2
D|---------------------------------------------------------------|
A|------6-5------------------------------------------------------|
F|------5-5------------------------------*-----------------------|
C|-0000-3-3---3-3-5-5-----0----2---3-2-0-3v---2---3-2-0----------|
G|-0000-------1-1-3-3-----0--0---0----------0---0----------------|
C|-0000----0--------------0--------------------------------------|
PM .... .

D|---------------------------------------------------|
A|----6-5--------------6-5---------------------------|
F|----5-5--------------5-5--10-10--------------------|
C|-00-3-3--3-3-5-5-00--3-3--10-10-8-8----------------|
G|-00------1-1-3-3-00--------8--8-8-8----------------|
C|-00----0---------00------0------8-8----------------|
PM . .
Both Guitars do this but instead of the second part guitar 1 does
D|--------------------------------------|
A|--------------------------------------|
F|-/12-10-9-9h10p9----------------------|
C|-----------------h10p8----------------|
G|--------------------------------------|
C|--------------------------------------|