Atreyu — Someones Standing On My Chest

ATREYU-SOMEONE'S STANDING ON MY CHEST
Tuning: C,G,C,F,A,D

Intro
D|--------------0--|
A|-----------6-----|
F|--------0--------|
C|-----7-----------|
G|--5--------------|
C|-----------------|

Verse (Guitar 1)
D|-----------------------------------------------------------------------------------------|
A|-----------------------------------------------------------------------------------------|
F|------------------------------------7---------7/9----------------------------------------|
C|--3--1--0--0------------------------x---------x-x--10------------10------------8---------|
G|--3--1--0--0------------------------5---------5/7--10------------10------------8---------|
C|--3--1--0--0---0-0-0--0-0-0--0-0-0-----0-0-0-------10--10-10-10--10--10-10-10--8--8-8-8--|
. . . . . . . . . . . . . . . . . . . . . . . .

D|-----------------------------------------------------------------------------------------|
A|-----------------------------------------------------------------------------------------|
F|------------------------------------7---------7/9----------------------------------------|
C|--3--1--0--0------------------------x---------x-x--10------------10------------8---------|
G|--3--1--0--0------------------------5---------5/7--10------------10------------8---------|
C|--3--1--0--0---0-0-0--0-0-0--0-0-0-----0-0-0-------10--10-10-10--10--10-10-10--8--8-8-8--|
. . . . . . . . . . . . . . . . . . . . . . . .

D|---------------------------------------------------------------------------------|
A|---------------------------------------------------------------------------------|
F|--------------------------------------7/9----------------------------------------|
C|--3--1--0--0---0----0----0----0----0--x-x--10------------10------------8---------|
G|--3--1--0--0---0----0----0----0----0--5/7--10------------10------------8---------|
C|--3--1--0--0---0----0----0----0----0-------10--10-10-10--10--10-10-10--8--8-8-8--|
. . . . . . . . . . . . . . . . .

D|-----------------------------------------------------------------------------------------|
A|-----------------------------------------------------------------------------------------|
F|------------------------------------7---------7/9----------------------------------------|
C|--3--1--0--0------------------------x---------x-x--10------------10------------8---------|
G|--3--1--0--0------------------------5---------5/7--10------------10------------8---------|
C|--3--1--0--0---0-0-0--0-0-0--0-0-0-----0-0-0-------10--10-10-10--10--10-10-10--8--8-8-8--|
. . . . . . . . . . . . . . . . . . . . . . . .

D|-------------------------|
A|-------------------------|
F|-------------------------|
C|--3--1--0---0------------|
G|--3--1--0---0--let ring--|
C|--3--1--0---0------------|
. . .

Verse (Guitar 2)
D|-----------------------------------------------------------------------------------------|
A|-----------------------------------------------------------------------------------------|
F|------------------------------------7---------7/9----------------------------------------|
C|--3--1--0--0------------------------x---------x-x--10------------10------------8---------|
G|--3--1--0--0------------------------5---------5/7--10------------10------------8---------|
C|--3--1--0--0---0-0-0--0-0-0--0-0-0-----0-0-0-------10--10-10-10--10--10-10-10--8--8-8-8--|
. . . . . . . . . . . . . . . . . . . . . . . .

D|------------------------------------------------------------------------|
C|------------------------------------------------------------------------|
F|------------------------------------7---------7/9---12--12-12-1210--9--|
C|--3--1--0--0------------------------x---------x-x----x---x--x--x--x--x--|
G|--3--1--0--0------------------------5---------5/7---10--10-10-10-8--7--|
C|--3--1--0--0---0-0-0--0-0-0--0-0-0-----0-0-0----------------------------|
. . . . . . . . . . . . . . .

D|-------------------------------------------------------------------------------|
A|-------------------------------------------------------------------------------|
F|--9/109----------------------------7/9----------------------------------------|
C|--x--x-x-0---0----0----0----0----0--x-x--10------------10------------8---------|
G|--7/-87-0---0----0----0----0----0--5/7--10------------10------------8---------|
C|---------0---0----0----0----0----0-------10--10-10-10--10--10-10-10--8--8-8-8--|
. . . . . . . . . . . . . .

D|------------------------------------------------------------------------|
A|------------------------------------------------------------------------|
F|------------------------------------7---------7/9---12--12-12-1210--9--|
C|--3--1--0--0------------------------x---------x-x----x---x--x--x--x--x--|
G|--3--1--0--0------------------------5---------5/7---10--10-10-10-8--7--|
C|--3--1--0--0---0-0-0--0-0-0--0-0-0-----0-0-0----------------------------|
. . . . . . . . . . . . . . .

D|-----------------------|
A|-----------------------|
F|--9/109--7------------|
C|--x--x-x--x--let ring--|
G|--7/-87--5------------|
C|-----------------------|

Chorus (Guitar 1 and Guitar 2)
D|-------------------------------------------------------------------------------------------------|
A|-------------------------------------------------------------------------------------------------|
F|----------------7----------------10----------------7---------------------------------------|
C|----------------x-------------------x------------------x----8--8--10--10--8--8--3--3--3---3---2--|
G|--0-0-0--0-0-0--5--0-0-0--0-0-0---8--0-0-0--0-0-0--5--8--8--8---8---8--8--3--3--3---3---2--|
C|--0-0-0--0-0-0-------0-0-0--0-0-0--------0-0-0--0-0-0-------8--8--8---8---8--8--3--3--3---3---2--|
. . . . . . . . . . . . . . . . . .

D|-------------------------------------------------------------------------------------------------|
A|-------------------------------------------------------------------------------------------------|
F|----------------7----------------10----------------7---------------------------------------|
C|----------------x-------------------x------------------x----8--8--10--10--8--8--3--3--3---3---2--|
G|--0-0-0--0-0-0--5--0-0-0--0-0-0---8--0-0-0--0-0-0--5--8--8--8---8---8--8--3--3--3---3---2--|
C|--0-0-0--0-0-0-------0-0-0--0-0-0--------0-0-0--0-0-0-------8--8--8---8---8--8--3--3--3---3---2--|
. . . . . . . . . . . . . . . . . .

D|-------------------------------------------------------------------------------------------------|
A|-------------------------------------------------------------------------------------------------|
F|----------------7----------------10----------------7---------------------------------------|
C|----------------x-------------------x------------------x----8--8--10--10--8--8--3--3--3---3---2--|
G|--0-0-0--0-0-0--5--0-0-0--0-0-0---8--0-0-0--0-0-0--5--8--8--8---8---8--8--3--3--3---3---2--|
C|--0-0-0--0-0-0-------0-0-0--0-0-0--------0-0-0--0-0-0-------8--8--8---8---8--8--3--3--3---3---2--|
. . . . . . . . . . . . . . . . . .

D|-------------------------------------------------------------------------------------------------|
A|-------------------------------------------------------------------------------------------------|
F|----------------7----------------10----------------7---------------------------------------|
C|----------------x-------------------x------------------x----8--8--10--10--8--8--3--3--3---3---2--|
G|--0-0-0--0-0-0--5--0-0-0--0-0-0---8--0-0-0--0-0-0--5--8--8--8---8---8--8--3--3--3---3---2--|
C|--0-0-0--0-0-0-------0-0-0--0-0-0--------0-0-0--0-0-0-------8--8--8---8---8--8--3--3--3---3---2--|
. . . . . . . . . . . . . . . . . .

Verse 2: same as Verse 1; Guitars 1 and 2 play respective parts

Pre-Bridge: big ol' pick slide by Guitar 1 and Guitar 2

Bridge (Guitar 1 and Guitar 2)
D|--------------------------------------------------------------------|
A|--------------------------------------------------------------------|
F|-----------7---------------7---------------7------------------------|
C|--0--3--0--7--6---0--3--0--7--6---0--3--0--7--6---0--3--0--3--3--1--|
G|--0--3--0--5--6---0--3--0--5--6---0--3--0--5--6---0--3--0--3--3--1--|
C|--0--3--0-----6---0--3--0-----6---0--3--0-----6---0--3--0--3--3--1--|
. . .

D|-----------------------------------------------------------------------|
A|-----------------------------------------------------------------------|
F|-----------7---------------7---------------7---------------------------|
C|--0--3--0--7--6---0--3--0--7--6---0--3--0--7--6---0--3--0--3--3--1--0--|
G|--0--3--0--5--6---0--3--0--5--6---0--3--0--5--6---0--3--0--3--3--1--0--|
C|--0--3--0-----6---0--3--0-----6---0--3--0-----6---0--3--0--3--3--1--0--|
. .

Guitar cuts out and bass plays root notes of preceding guitar part; then both guitars play,
D|-----|
A|-----|
F|-----|
C|--0--|
G|--0--| (nice and short)
C|--0--|

(Guitar 1 and Guitar 2)
D|--------------------------------------------------------------------|
A|--------------------------------------------------------------------|
F|-----------7---------------7---------------7------------------------|
C|--0--3--0--7--6---0--3--0--7--6---0--3--0--7--6---0--3--0--3--3--1--|
G|--0--3--0--5--6---0--3--0--5--6---0--3--0--5--6---0--3--0--3--3--1--|
C|--0--3--0-----6---0--3--0-----6---0--3--0-----6---0--3--0--3--3--1--|
. . .

D|---------------------------------------------------------------------------------|
A|---------------------------------------------------------------------------------|
F|-----------7---------------7---------------7-------------------------------------|
C|--0--3--0--7--6---0--3--0--7--6---0--3--0--7--6---0--3--0--3--3--1--0------------|
G|--0--3--0--5--6---0--3--0--5--6---0--3--0--5--6---0--3--0--3--3--1--0--let ring--|
C|--0--3--0-----6---0--3--0-----6---0--3--0-----6---0--3--0--3--3--1--0------------|
. .
Second-half of Bridge (Guitar 1)
D|---------------|-------------|-------------|----------------------------------------------|
A|---------------|-------------|-------------|----------------------------------------------|
F|---------------|-------------|-------------|----------------------------------------------|
C|-0-------------|-0-----------|-0-----------|-0--------------------------------------------|
G|-0--(stacatto)-|-0--let ring-|-0--let ring-|-0--let ring--0-0-0-0-0-0-0-0-0-0-0-0-0-0-0-0-|
C|-0-------------|-0-----------|-0-----------|-0------------0-0-0-0-0-0-0-0-0-0-0-0-0-0-0-0-|
. . . . . . . . . . . . . . . .

Second-half of Bridge (Guitar 2)
D|--0-0-0-0-0-0-0-0--0-0-0-0-0-0-0-0--0-0-0-0-0-0-0-0---0--0--0--0--0--0--0--0--|
A|--5-5-5-5-5-5-5-5--6-6-6-6-6-6-6-6--8-8-8-8-8-8-8-8--10-10-10-10-10-10-10-10--|
F|------------------------------------------------------------------------------|
C|------------------------------------------------------------------------------|
G|------------------------------------------------------------------------------|
C|------------------------------------------------------------------------------|

D|--0-0-0-0-0-0-0-0--0-0-0-0-0-0-0-0--0-0-0-0-0-0-0-0---0--0--0--0--0--0--0--0--|
A|--5-5-5-5-5-5-5-5--6-6-6-6-6-6-6-6--8-8-8-8-8-8-8-8--10-10-10-10-10-10-10-10--|
F|------------------------------------------------------------------------------|
C|------------------------------------------------------------------------------|
G|------------------------------------------------------------------------------|
C|------------------------------------------------------------------------------|

D|--0-0-0-0-0-0-0-0--0-0-0-0-0-0-0-0--0-0-0-0-0-0-0-0---0--0--0--0--0--0--0--0--|
A|--5-5-5-5-5-5-5-5--6-6-6-6-6-6-6-6--8-8-8-8-8-8-8-8--10-10-10-10-10-10-10-10--|
F|------------------------------------------------------------------------------|
C|------------------------------------------------------------------------------|
G|------------------------------------------------------------------------------|
C|------------------------------------------------------------------------------|

D|--0-0-0-0-0-0-0-0--0-0-0-0-0-0-0-0--0-0-0-0-0-0-0-0---0--0--0--0--0--0--0--0--|
A|--5-5-5-5-5-5-5-5--6-6-6-6-6-6-6-6--8-8-8-8-8-8-8-8--10-10-10-10-10-10-10-10--|
F|------------------------------------------------------------------------------|
C|------------------------------------------------------------------------------|
G|------------------------------------------------------------------------------|
C|------------------------------------------------------------------------------|

Post-Bridge (Guitar 1 and Guitar 2)
D|----------------------------------------------------------------------|
A|----------------------------------------------------------------------|
F|----------------------------------------------------------------------|
C|--0-0-0-0-0-0-0-0--3-3-3-3-3-3-3-3--8-8-8-8-8-8-8-8--3-3-3-3-2-2-2-2--|
G|--0-0-0-0-0-0-0-0--3-3-3-3-3-3-3-3--8-8-8-8-8-8-8-8--3-3-3-3-2-2-2-2--|
C|--0-0-0-0-0-0-0-0--3-3-3-3-3-3-3-3--8-8-8-8-8-8-8-8--3-3-3-3-2-2-2-2--|

D|----------------------------------------------------------------------|
A|----------------------------------------------------------------------|
F|----------------------------------------------------------------------|
C|--0-0-0-0-0-0-0-0--3-3-3-3-3-3-3-3--8-8-8-8-8-8-8-8--3-3-3-3-2-2-2-2--|
G|--0-0-0-0-0-0-0-0--3-3-3-3-3-3-3-3--8-8-8-8-8-8-8-8--3-3-3-3-2-2-2-2--|
C|--0-0-0-0-0-0-0-0--3-3-3-3-3-3-3-3--8-8-8-8-8-8-8-8--3-3-3-3-2-2-2-2--|

D|----------------------------------------------------------------------|
A|----------------------------------------------------------------------|
F|----------------------------------------------------------------------|
C|--0-0-0-0-0-0-0-0--3-3-3-3-3-3-3-3--8-8-8-8-8-8-8-8--3-3-3-3-2-2-2-2--|
G|--0-0-0-0-0-0-0-0--3-3-3-3-3-3-3-3--8-8-8-8-8-8-8-8--3-3-3-3-2-2-2-2--|
C|--0-0-0-0-0-0-0-0--3-3-3-3-3-3-3-3--8-8-8-8-8-8-8-8--3-3-3-3-2-2-2-2--|

D|----------------------------------------------------------------------|
A|----------------------------------------------------------------------|
F|----------------------------------------------------------------------|
C|--0-0-0-0-0-0-0-0--3-3-3-3-3-3-3-3--8-8-8-8-8-8-8-8--3-3-3-3-2-2-2-2--|
G|--0-0-0-0-0-0-0-0--3-3-3-3-3-3-3-3--8-8-8-8-8-8-8-8--3-3-3-3-2-2-2-2--|
C|--0-0-0-0-0-0-0-0--3-3-3-3-3-3-3-3--8-8-8-8-8-8-8-8--3-3-3-3-2-2-2-2--|

Outro (Guitar 1 and Guitar 2)
D|-------------------------------------------------|
A|-------------------------------------------------|
F|-------------------------------------------------|
C|--0------------8------------7------------3----2--|
G|--0--let ring--8--let ring--7--let ring--3----2--|
C|--0------------8------------7------------3----2--|

D|-------------------------------------------------------------|
A|-------------------------------------------------------------|
F|-----------------------------------------/12-10-9--9/10-9-7--|
C|--0------------8------------7--------------x--x-x--x--x-x-x--|
G|--0--let ring--8--let ring--7--let ring--/10--8-7--7/-8-7-5--|
C|--0------------8------------7--------------------------------|

D|----------------each chord represents three; a triplet----------------|
A|----------------------------------------------------------------------|
F|----------------------------------------------------------------------|
C|--0-0-0-0-0-0-0-0--8-8-8-8-8-8-8-8--7-7-7-7-7-7-7-7--3-3-3-3-3-3-3-3--|
G|--0-0-0-0-0-0-0-0--8-8-8-8-8-8-8-8--7-7-7-7-7-7-7-7--3-3-3-3-3-3-3-3--|
C|--0-0-0-0-0-0-0-0--8-8-8-8-8-8-8-8--7-7-7-7-7-7-7-7--3-3-3-3-3-3-3-3--|

D|----------------each chord represents three; a triplet----------------|
A|----------------------------------------------------------------------|
F|----------------------------------------------------------------------|
C|--0-0-0-0-0-0-0-0--8-8-8-8-8-8-8-8--7-7-7-7-7-7-7-7--3-3-3-3-3-3-3-3--|
G|--0-0-0-0-0-0-0-0--8-8-8-8-8-8-8-8--7-7-7-7-7-7-7-7--3-3-3-3-3-3-3-3--|
C|--0-0-0-0-0-0-0-0--8-8-8-8-8-8-8-8--7-7-7-7-7-7-7-7--3-3-3-3-3-3-3-3--|

D|------------------------each chord or octave is a triplet----------------------|
A|-------------------------------------------------------------------------------|
F|----------7/9/10/12----------7/9/10/12----------7/9/10/12----------12109/10--|
C|--0-0-0-0-x-x--x--x--8-8-8-8-x-x--x--x--7-7-7-7-x-x--x--x--3-3-3-3--x--x-x--x--|
G|--0-0-0-0-5/7/-8/10--8-8-8-8-5/7/-8/10--7-7-7-7-5/7/-8/10--3-3-3-3-10-87/-8--|
C|--0-0-0-0------------8-8-8-8------------7-7-7-7------------3-3-3-3-------------|

D|-----------------------each chord or octave is a triplet----------|----------not triplets---------|
A|------------------------------------------------------------------|-------------------------------|
F|---------7/9/10/12----------7/9/10/12----------7/9/10/12----------|-/12-10-9--9/10-9-7------------|
C|-0-0-0-0-x-x--x--x--8-8-8-8-x-x--x--x--7-7-7-7-x-x--x--x--3-3-3-3-|---x--x-x--x--x-x-x--0---------|
G|-0-0-0-0-5/7/-8/10--8-8-8-8-5/7/-8/10--7-7-7-7-5/7/-8/10--3-3-3-3-|-/10--8-7--7/-8-7-5--0-let ring|
C|-0-0-0-0------------8-8-8-8------------7-7-7-7------------3-3-3-3-|---------------------0---------|

Outro (Guitar 3)
D|----------------------------------------------------------------------------------|
A|----------------------------------------------------------------------------------|
F|----------------------------------------------------------------------------------|
C|----------------------------------------------------------------------------------|
G|--5~---7/87~---8/108~---13~--12~---5~---7/87~---8/108~---/13-12-10--/12-10-8--|
C|----------------------------------------------------------------------------------|

D|---------------------------------all triplets-------------------------------------------|
A|----------------------------------------------------------------------------------------|
F|----------------------------------------------------------------------------------------|
C|----------------------------------------------------------------------------------------|
G|--8-7-8-5--8-7-8-5--12-15-13-12--10-12-8-10--8-7-8-5--8-7-8-5--10-10-12-12-13-13-12-12--|
C|----------------------------------------------------------------------------------------|

D|---------------------------------all triplets-------------------------------------------|
A|----------------------------------------------------------------------------------------|
F|----------------------------------------------------------------------------------------|
C|----------------------------------------------------------------------------------------|
G|--8-7-8-5--8-7-8-5--12-15-13-12--10-12-8-10--8-7-8-5--8-7-8-5--10-10-12-12-13-13-12-12--|
C|----------------------------------------------------------------------------------------|

D|---------------------------------all triplets-------------------------------------------------|
A|----------------------------------------------------------------------------------------------|
F|----------------------------------------------------------------------------------------------|
C|----------------------------------------------------------------------------------------------|
G|--8-7-8-5--8-10-12-13--15-13-12-10--13-12-10-8--8-7-8-5--8-10-12-13--15-13-12-10--13-12-10-8--|
C|----------------------------------------------------------------------------------------------|

D|----------------------------------------------------------------------------------
A|----------------------------------------------------------------------------------
F|----------------------------------------------------------------------------------
C|----------------------------------------------------------------------------------
G|--8-7-8-5--8-10-12-13--15-13-12-10--13-12-10-8--8-7-8-5--8-10-12-13--15-13-12-10--
C|----------------------------------------------------------------------------------

-----------single notes-------------|
------------------------------------|
------------------------------------|
-----------------------0------------|
--/13-12-10--/12-10-8--0--let ring--|
-----------------------0------------|