Attiley — Instantaneous Bruises

#---------------------------------PLEASE NOTE----------------------------------#
#This file is the author's own work and represents their interpretation of the #
#song. You may only use this file for private study, scholarship, or research. #
#------------------------------------------------------------------------------#
#------------Created with Taborama Tab Creator-----www.taborama.com------------#
#------------------------------------------------------------------------------#

Title: Instantaneous Bruises
Artist: aTTiley
Album: TBA

Instrument: 6 String Guitar

Tabbed by: Joe Hill (iomegaman72@msn.com)

Tuning: Standard (E A D G B E)

Good song, simple, but effective.

INTRO:
E|---2-------4-------2-------0---------------------------------------||
B|-----3-------3-------3-------3-------------------------------------||
G|-------2-------2-------2-------2--x2-------------------------------||
D|-0-------0-------0-------0-----------------------------------------||
A|-------------------------------------------------------------------||
E|-------------------------------------------------------------------||
Play at a moderate speed, clean.
VERSE:
E|-------------------------------------------------------------------||
B|-------7-----------------------------------------------------------||
G|-7-----7-x8--7-----5-----------------------------------------------||
D|-7-x8--5-----7-x8--5-x8--------------------------------------------||
A|-5-----------5-----3-----------------------------------------------||
E|-------------------------------------------------------------------||
Lots of distortion, loud.
CHORUS:
E|-------------------------------------------------------------------||
B|-------------------------------------------------------------------||
G|-12----------------------------------------------------------------||
D|-12-x16--12--------------------------------------------------------||
A|-10------12-x16----------------------------------------------------||
E|---------10--------------------------------------------------------||
Really fast, really loud.