Audio Adrenaline — Free Ride

На этой странице Вы можете ознакомиться с 2 версиями подбора аккордов для гитары к песне "Free Ride" группы (исполнителя) "Audio Adrenaline".

Title: Free Ride
Author/Artist: Audio Adrenaline
Album: Bloom
Transcribed by: Matt Blystone
Email: jblystone@texoma.net

This is a very simplistic version. To get the order
and lyrics look at the guitar tab.

------------------------------------------------------------------------------
------------------------------------------------------------------------------
---------7--------------------7-----------------------------------------------
-5--5-5---------5-5---5--5-5--------------------------------------------------
Intro:

------------------------------------------------------------------------------
------------------------------------------------------------------------------
-5-3----------0--------5-3---------0------------------------------------------
-----5-5--0h2---2-3-5------5-5-0h2---2-3-5------------------------------------
Verse:

------------------------------------------------------------------------------
------------------------------------------------------------------------------
----------------------5-5---------5-5-----------------------------------------
-2-2-3-3-5-5--2-2-3-3-----2-2-3-3---------------------------------------------
Chorus:

------------------------------------------------------------------------------
------------------------------------------------------------------------------
------------------------------------------------------------------------------
-3-4-5-2-3-3-4-5-3-5----------------------------------------------------------
8X
Author/Artist: Audio Adrenaline
Title: Free Ride
Album: Bloom

------------------------------------------------------------------------------|
---------10---10--8--7---------------------------8--8--7--5-------------------|
---------9----9---7--7---------------------------7--7--7--6-------------------|
-----7-------------------x-x-x-x-x-x--------7-----------------x-x-x-x-x-x-----|
-7h9---------------------x-x-x-x-x-x---7h9--------------------x-x-x-x-x-x-----|
-------------------------x-x-x-x-x-x--------------------------x-x-x-x-x-x-----|
verse:

------------------------------------------------------------------------------|
------------------------------------------------------------------------------|
------------------------------------------------------------------------------|
-7-5-----------------------7-7p5----------------------------------------------|
-5-3-7-7------0-4-x-5-x-7--------7--------------------------------------------|
-----5-5--0h2---2-x-3-x-5-----------------------------------------------------|
The mountain are high the valleys are low.

------------------------------------------------------------------------------|
------------------------------------------------------------------------------|
------------------------------------------------------------------------------|
-7-5-----------------------7-7p5----------------------------------------------|
-5-3-7-7-----0-4-x-5-x-7---------7--------------------------------------------|
-----5-5-0h2---2-x-3-x-5------------------------------------------------------|
You are confuse by which way to go.

------------------------------------------------------------------------------|
------------------------------------------------------------------------------|
------------------------------------------------------------------------------|
-7-5-----------------------7-7p5----------------------------------------------|
-5-3-7-7-----0-4-x-5-x-7---------7--------------------------------------------|
-----5-5-0h2---2-x-3-x-5------------------------------------------------------|
I know someone to give you a hand

------------------------------------------------------------------------------|
------------------------------------------------------------------------------|
------------------------------------------------------------------------------|
-7-5--------------------------------------------------------------------------|
-5-3-7-7-----0-4-x-5-x-7-7---------------------------------------------------|
-----5-5-0h2---2-x-3-x-5-5---------------------------------------------------|
Lead you into the promised land

-----------------------------|------------------------------------------------|
-----------------------------|------------------------------------------------|
-----------------------------|------------------2-4p2-------------------------|
------------------2-4p2------|-----------7-7--4-------4-----------------------|
-4-4--5-5--7-7--4-------4----|-4-4--5-5--5-5----------------------------------|
-2-2--3-3--5-5---------------|-2-2--3-3---------------------------------------|
Come on and take a free ride! Come on and get by my side

------------------------------------------------------------------------------|
------------------------------------------------------------------------------|
------------------------------------------------------------------------------|
-----------7-7----------------------------------------------------------------|
-4-4--5-5--5-5----------------------------------------------------------------|
-2-2--3-3---------------------------------------------------------------------|
Come on and take a free ride!

------------------------------------------------------------------------------|
-------10-10--8-7-------------------8-8-7-5-----------------------------------|
-------9---9--7-7-------------------7-7-7-6-----------------------------------|
-----7------------x-x-x-x-x-x-----7---------x-x-x-x-x-x-----------------------|
-7h9--------------x-x-x-x-x-x-7h9-----------x-x-x-x-x-x-----------------------|
------------------x-x-x-x-x-x---------------x-x-x-x-x-x-----------------------|
Repeat 4 times

------------------------------------------------------------------------------|
------------------------------------------------------------------------------|
------------------------------------------------------------------------------|
-7-5---------------------7-7p5------------------------------------------------|
-5-3-7-7-----0-4-x-5-x-7-------7----------------------------------------------|
-----5-5-0h2---2-x-3-x-5------------------------------------------------------|
All over the country i've seen it the same.

------------------------------------------------------------------------------|
------------------------------------------------------------------------------|
------------------------------------------------------------------------------|
-7-5---------------------7-7p5------------------------------------------------|
-5-3-7-7-----0-4-x-5-x-7-------7----------------------------------------------|
-----5-5-0h2---2-x-3-x-5------------------------------------------------------|
Nobody's winning at this type of game

------------------------------------------------------------------------------|
------------------------------------------------------------------------------|
------------------------------------------------------------------------------|
-7-5---------------------7-7p5------------------------------------------------|
-5-3-7-7-----0-4-x-5-x-7-------7----------------------------------------------|
-----5-5-0h2---2-x-3-x-5------------------------------------------------------|
they got to do better they got to take aim

------------------------------------------------------------------------------|
------------------------------------------------------------------------------|
------------------------------------------------------------------------------|
-7-5---------------------7-7p5------------------------------------------------|
-5-3-7-7-----0-4-x-5-x-7-------7----------------------------------------------|
-----5-5-0h2---2-x-3-x-5------------------------------------------------------|
all of the answers will come from within

------------------------------|-----------------------------------------------|
------------------------------|-----------------------------------------------|
------------------------------|---------------2-4p2---------------------------|
---------------2-4p2----------|---------7-7-4-------4-------------------------|
-4-4-5-5-7-7-4-------4--------|-4-4-5-5-5-5-----------------------------------|
-2-2-3-3-5-5------------------|-2-2-3-3---------------------------------------|
Come on and take a free ride come on and get by my side

------------------------------------------------------------------------------|
------------------------------------------------------------------------------|
------------------------------------------------------------------------------|
---------7-7-----------------------------------------------------------------|
-4-4-5-5-5-5-----------------------------------------------------------------|
-2-2-3-3----------------------------------------------------------------------|
come on and take a free ride

------------------------------------------------------------------------------|
------------------------------------------------------------------------------|
------------------------------------------------------------------------------|
------------------------------------------------------------------------------|
------------------------------------------------------------------------------|
------------------------------------------------------------------------------|
play intro riff 2X verse riff 4X Chorus

--------------------|---------------------------------------------------------|
--------------------|---------------------------------------------------------|
--------------------|---------------------------------------------------------|
-4-5-7-4-5-5-6-7-5-7|---------------------------------------------------------|
--------------------|---------------------------------------------------------|
-2-3-5-2-3-3-4-5-3-5|---------------------------------------------------------|
play this 8X's

------------------------------------------------------------------------------|
------------------------------------------------------------------------------|
----------------------------------------------2-4p2---------------------------|
---------------2-4p2--------------------7-7-4-------4-------------------------|
-4-4-5-5-7-7-4-------4----------4-4-5-5-5-5-----------------------------------|
-2-2-3-3-5-5--------------------2-2-3-3---------------------------------------|
Come on and take a free ride Come on and take a free ride (4x)

------------------------------------------------------------------------------|
------------------------------------------------------------------------------|
------------------------------------------------------------------------------|
------------------------------------------------------------------------------|
-7---------------------------------------------------------------------------|
-5---------------------------------------------------------------------------|