Audio Adrenaline — Good People

Good People
Audio Adrenaline
from BloOm
Tabbed by jrsmith@netdoor.com

Repeat
G---||*-----------------------------------------------------------------
D---||*-----------------------------------------------------------------
A---||------------5--5--5--2--2--2--3--3--5-----------5--5--5--3--------
E---||---3--3--3-----------------------------3--3--3--------------------



G-------/5--5-----------------------------------------------------------
D--------------------------------------3--3--3--5-----------------------
A---3-------------------------5--5--5--------------3--3--3--5-----------
E--------------------3--3--3-----------------------------------3--3-----



G-----------------------------------------------------------------------
D---------------3--3--3--5--------------------------------3--3--3--5----
A------5--5--5--------------3--3--3--5-----------5--5--5----------------
E---3-----------------------------------3--3--3-------------------------



G-----------------------------------------------------------------------
D---------------------------------3--3--3--5----------------------------
A---3--3--3--5-----------5--5--5--------------3--3--3--5--1--3----------
E---------------3--3--3-----------------------------------------5--5----



G-----------------------------------------------------------------------
D-----------------------------------------------------------5/12--------
A--------------------1--3--------------------1--3--1--3--5--------------
E---/8-----5/8--5/8--------5--5/8--5/8--5/8-----------------------3-----



G-------------------------------------------------------------/---------
D-----------------------------------------------------------------------
A---------5--5--5--2--2--2--3--3--5-----------5--5--5--3-----3----------
E---3--3-----------------------------3--3--3----------------------------


Repeat
G---5--5--*||-----------------------------------------------------------
D---------*||-----------------------------------------------------------
A----------||-----------5--5--5--2--2--2--3--3--5-----------5--5--5-----
E----------||--3--3--3-----------------------------3--3--3--------------


During Guitar Solo
G-----------------------------------------------------------------------
D-----------------------------------------------------------------------
A---3--------------------5--5--5--5--2--2--2--2--2--3--3--3--5----------
E---------3--3--3--3--3-----------------------------------------3--3----



G-----------------------------------------------------------------------
D-----------------------------------------------------------------------
A------------5--5--5--5--2--2--2--2--2--3--3--3--5-----------------5----
E---3--3--3-----------------------------------------3--3--3--3--3-------



G-----------------------------------------------------------------------
D-----------------------------------------------------------------------
A---5--5--5--2--2--2--2--2--3--3--3--5-----------------5--5--5--5--2----
E---------------------------------------3--3--3--3--3-------------------


Bass Solo
G-----------------------------------------------------------------------
D-----------------------------------------------------------------------
A---2--2--2--2--3--3--3--5--------10--10--10--10--10--10--10--10--------
E-----------------------------------------------------------------10----



G-----------------------------------------------------------------------
D-------------------------------9--9--9--9--9--9--7--9--10--10--10------
A-----------------------------------------------------------------------
E---10--10--10--10--10--10--10------------------------------------------



G-----------------------------------------------------------------------
D---10--10--10--12------------------------------------------------------
A-------------------10--10--10--10--10--10--10--10----------------------
E---------------------------------------------------10--10--10--10------



G-----------------------------------------------------------------------
D-------------------10--10--10--10--10--10--10--10--10--10--10--10------
A-----------------------------------------------------------------------
E---10--10--10--10------------------------------------------------------


End of Bass Solo
G-----------------------------------------------------------------------
D-----------------------------------------------------------------------
A---------------------------5--5--5--2--2--2--3--3--5-----------5--5----
E------------------3--3--3-----------------------------3--3--3----------



G-------------/5--5-----------------------------------------------------
D-----------------------------------------------------------------------
A---5--3--3-------------------5--5--5--2--2--2--3--3--5-----------5-----
E--------------------3--3--3-----------------------------3--3--3--------



G-----------------------------------------------------------------------
D-------------/5--5--5--------------------------------------------------
A---5--5--3--3----------------------------------------------------------
E-----------------------3-----------------------------------------------