Audio Adrenaline — Im Not The King

На этой странице Вы можете ознакомиться с 4 версиями подбора аккордов для гитары к песне "Im Not The King" группы (исполнителя) "Audio Adrenaline".

I'm Not The King
Audio Adrenaline
Album bloom
(c) 1996 The ForeFront Communications Group inc.
Originally Tabbed by Skip Woodstock (Icepick111@aol.com 's teacher)
New Version Tabbed by Bryan Cool (bcool@primary.net)

Intro 4x
-----------------------------------|
-----------------------------------|
-------5/7-------------------------|
-0--0-------0--0--2--0-------------|----0-2-0

Verse 2x
----------------------------------|-------------|
-----------------------------2--4-|-------------|
------------------------2-4-------|--6--6--4--5-|
0----0-2----2-0----0--2-----------|-------------|

2x
^&^
-------------------------------------|
-------------------------------------|
------5/7----------------------------|
0--0--------0--0--2--0---------------|

2x
---------------------0-------------|---------------------------------|
--------------0---2-----2-----0----|---------------------------------|
--------------------------0h2------|--------5/7----------------------|
0----0-0-3-------------------------|--0--0-------0--0--2--0----------|

--------------------7-7-------|------------------------------|
-----------------(5)-----7---|------------------------------|
------------5--7--------------|--------5/7-------------------|
0----0-0-3--------------------|--0--0-------0--(0--2--0)-----|

Play (0--2--0) only 1st time
---------------------------------------------------------------------------
---------------------------------------------------------------------------
------------0--0--0--0--0--0--0--0--0-------------0--0--0--0--0--0--0--0--0
---2--3--4------------------------------2--3--4----------------------------

--------------------------------------------
--------------------------------------------
--------------------------------------------
--4--3--2--0--0--0--0--0--0--0--0--0-0------

1st Ending 2x
-----------------------------------|-------------|
-----------------------------2--4--|-------------|
------------------------2-4--------|--6--6--4--5-|
0----0-2----2-0----0-2-------------|-------------| (Goto ^&^ )

2nd Ending
-----------------------------------------|
-----------------------------------------|
-----------------------------------------|
-4--3--2--0--0--0--0--0--0--0--0--0-0----|

---------------------------------------------------------------------------
---------------------------------------------------------------------------
------------0--0--0--0--0--0--0--0--0-------------0--0--0--0--0--0--0--0--0
---2--3--4------------------------------2--3--4----------------------------

-----------------------------------------------------------------------------------------
-----------------------------------------------------------------------------------------
-----------------------------------------------------------------------------------------
--4--3--2--0--0--0--0--0--0--0--0--0-0--------4--3--2--0--0--0--0--0--0--0-0-0-0-0-0-0-0-

GUITAR SOLO(I can't figure out the bass background for this. If anybody knows it, please email me.)
AFTER GUITAR SOLO:
||----------------------------------------------------------------
||*---------------------------------------------------------------
||-0--0--0--0--0--0--0--0--0-------------0--0--0--0--0--0--0--0--0
||-----------------------------2--3--4----------------------------

1st Ending
----------------------------------------|--------------------------------------------------||
----------------------------------------|-------------------------------------------------*||
----------------------------------------|--------------------------------------------------||
--4--3--2--0--0--0--0--0--0--0--0--0-0--|-4--3--2--0--0--0--0--0--0--0--0--0-0--2--3--4----||

2nd Ending
|-------------------------------------------------------
|-------------------------------------------------------
|-------------------------------------------------------
|-4(pause)-3(pause)-2(pause)-0--0--0--0--0--0--0--0--0-0

-----------------------------------------------------------------------------
-----------------------------------------------------------------------------
----------0--0--0--0--0--0--0--0--0-------------0--0--0--0--0--0--0----------
2--3--4-------------------------------2--3--4-------------------------4--3--2

2x
-------------------------|---------
-------------------------|---------
-------5/7---------------|---------
-0--0-------0--0--2--0---|--0--2--0
-------------------------------------------------------------------------------
I'M NOT THE KING - Audio Adrenaline
-------------------------------------------------------------------------------

Tabbed by: mmm.skittles.
Email: slinkyslide@hotmail.com

Tuning: Standard

| / slide up
| slide down
| h hammer-on
| p pull-off
| b bend
| ~ vibrato
| x Mute note
| * Palm-muted note

hello everybody. this is how i play I'm Not The King. It's not completely right
since there are two guitars in the actual song and i tabbed this for one guitar,
but it's close enough. i guess.

Intro
e|--------------------------| e|--------------|
B|--------------------------| B|--------------|
G|--------------------------| G|--------------|
D|--------------------------| play 5x, then D|--------------|
A|-----5h7-7----------------| A|--------------|
E|-0-0-------0-0-0-0-3-0-3--| E|-0-0-0-3-0-3--|
* * * * * * * * * * *

Verse
e|----------0------------------------------------------|
B|----3--------0---------------------------------------|
G|-1--------------3------------------------------------|
D|------------------------(x4) then---------5----------|
A|-------------------------------------x--7---7--4--5--|
E|-----------------------------------------------------|

Chorus
*play intro*
I'm not the king, i just sing yeah
*intro*
i'm just a fraction of a thing yeah:

e|-------------------------------------|
B|-------------------------------------|
G|-------------------------------------|
D|-------------------------------------|
A|-----5h7-7-------------------5h7-7---|
E|-0-0-------0-0-0-0-3-0-3-0-0---------|
* * * * * *

Chorus #2
e|-----------------------------------------------|
B|-----------------------------------------------|
G|-----------------------------------------------|
D|-----4-5-6-7777777777777--4-5-6-7777777777777--|
A|-----4-5-6-7777777777777--4-5-6-7777777777777--|
E|--x--2-3-4-5555555555555--2-3-4-5555555555555--|

e|---------------------------------|
B|---------------------------------|
G|---------------------------------|
D|--5-4-3-2---8-8-8-9-----8-8-8-9--|
A|--5-4-3-2---7-7-7-7-----7-7-7-7--|
E|--3-2-1-0-0-0-0-0-0-0-0-0-0-0-0--|

play Verse again
*play intro*
2nd Chorus
I'm not the king, i just sing yeah:
e|-------------------------------------10----------|
B|--------8-------8h10-8-------8-------10h12p10-8--|
G|--7h9-9-9-7-9-9-9----9-7h9-9-9-7-9-9-------------|
D|-------------------------------------------------|
A|-------------------------------------------------|
E|-------------------------------------------------|

I'm just a fraction of a thing yeah:
e|--xx-xx-xx-----------------------------------------------------------------|
B|--xx-xx-xx--------8-------8h10-8-------8-8---------------------------------|
G|--xx-xx-xx--7h9-9-9-7-9-9-9----9-7h9-9-9---9-----------------------------|
D|---------------------------------------------------------------------------|
A|---------------------------------------------------------------------------|
E|---------------------------------------------------------------------------|

Play Chorus #2 several times and then it's time for the SOLO!!

e|------------10-10b12~-10--------------------------10-10b12~-10----15/17-15~|
B|------11b12--------------11b12~-10----------11b12--------------12----------|
G|-/12~------------------------------12-9-12~--------------------------------|
D|---------------------------------------------------------------------------|
A|---------------------------------------------------------------------------|
E|---------------------------------------------------------------------------|

e|----------10-10b12~-10-----------------------------------------------------|
B|----11b12--------------11~-10---------------11b12-10-----------------------|
G|-12---------------------------12h14p12-9-12----------12h14p12-9------------|
D|---------------------------------------------------------------------------|
A|---------------------------------------------------------------------------|
E|---------------------------------------------------------------------------|

e|---------------------------------------------------------------------------|
B|----8-8-----8-8------------------------------------------------------------|
G|-99-9-9-9p7-9-9-9---------------------------------------------------------|
D|--------------------------5------------------------------------------------|
A|-------------------/5-5-7--------------------------------------------------|
E|---------------------------------------------------------------------------|

then play the chorus a few more times, then turn the intro into an outro and
you're done! yaay it's over
===============================================================================
this is the whoooooooooole effin tab of audio adrenalines im not the king

standard tuning

INTRO/VERSE
e-------------------------------------------------------------------------------
B-------------------------------------------------------------------------------
G-------------------------------------------------------------------------------
D-------------------------------------------------------------------------------
A------5h7-7-------------------5h7-----------------5h7-7------------------------
E--0-0---------x-x-x-x-x-3-0-0-----x-x-x-x-x-3-0-0-------x-x-x-x-x-3-x-x-x-x-x-3

CHORUS

e-------------------------------------------------------------------------------
B-------------------------------------------------------------------------------
G--------2-2-2-2-2-2-x-x-2-2-2-2-------2-2-2-2-2-2-2-x-x-2-2-2-2----------------
D--------1-1-1-1-1-1-x-x-1-1-1-1-------1-1-1-1-1-1-1-x-x-1-1-1-1----------------
A--------0-0-0-0-0-0-x-x-0-0-0-0-------0-0-0-0-0-0-0-x-x-0-0-0-0----------------
E--2-3-4-------------------------2-3-4------------------------------------------

e-------------------------------------------------------------------------------
B-------------------------------------------------------------------------------
G-------------------------------------------------------------------------------
D----------8-8-8-8-x-x-8-8-8-8----------8-8-8-8-x-x-8-8-8-8---------------------
A----------7-7-7-7-x-x-7-7-7-7----------7-7-7-7-x-x-8-8-8-8---------------------
E--4-3-2-0-0-0-0-0-x-x-0-0-0-0--4-3-2-0-0-0-0-0-x-x-0-0-0-0---------------------

FILL

e----------------------------bend-----------------------------------------------
B------8------8-8------8------10--9---------------------------------------------
G--7h9-7--7-9-7-7--7h9-7--7-9--9------------------------------------------------
D-------------------------------------------------------------------------------
A-------------------------------------------------------------------------------
E-------------------------------------------------------------------------------

SOLO
slight bend
e-----------12-------------------------12-------15-------15---------------------
B--------15----15-------------------15----15-12---------------------------------
G--12-14----------15-14-12----12-14---------------------------------------repeat
D--------------------------14-----------------------------------------------once
A-------------------------------------------------------------------------------
E-------------------------------------------------------------------------------


that is pretty much it so go out and play this for your friends and show
em how good you are
this is the old song by audio adrenaline, one of the best christian rock
bands of all time

e-------------------------------------------------------------------------------
B-------------------------------------------------------------------------------
G-------------------------------------------------------------------------------
D-------------------------------------------------------------------------------
A------5h7-----------------5h7-----------------5h7------------------------------
E--0-0-----x-x-x-x-x-3-0-0-----x-x-x-x-x-3-0-0-----x-x-x-x-x-3-x-x-x-x-x-3------