Audio Adrenaline — Let My Love Open The Door

На этой странице Вы можете ознакомиться с 2 версиями подбора аккордов для гитары к песне "Let My Love Open The Door" группы (исполнителя) "Audio Adrenaline".

----------------------------------------------------------------------------
LET MY LOVE OPEN THE DOOR -- Audio Adrenaline
----------------------------------------------------------------------------
Tabbed by: mmmskittles
Email: skemo_the_fish@hotmail.com

Tuning: Standard

Intro & Verse:
e|-------------------------8---------------------------------8---------|
B|----------8---------8------8----8------8--------------8------8----8--|
G|-----9---------9h10---10-----10-------------9----9h10---10-----10----|x3,
D|--10---10---10----------------------10---10---10---------------------|then
A|---------------------------------------------------------------------|
E|---------------------------------------------------------------------|

e|--5------------------------8--8----------------------8-8-8-8--8-8-8-8----|
B|--5---------5--------------8--8----------------------8-8-8-8--8-8-8-8----|
G|--5-------5---5------------9--9h10-------------------9-9-9-9--10101010---|
D|--7-----7-------7---(x2)--10-10-----(band kicks in)--10101010-10101010---|
A|------8------------------------------------------------------------------|
E|-----------------------------------------------------------(x2)----------|

Solo

e|------------------------------------------------------|
B|--5------------8------------13----------8----8--------|
G|----5---5--------9--9----------14---------10---10-----|
D|------7---7/10--------10/15-------15-10---------------|
A|------------------------------------------------------|
E|------------------------------------------------------|

e|--5----------------------------------------------------------------------|
B|--5--------------8---8---------13-------------15-------15----------------|
G|--5---5---5--------9---9----------14----------------16-------------------|
D|--7-7---7---7/10---------10/15-------15-15/17----17-------17-----(x2)----|
A|-------------------------------------------------------------------------|
E|-------------------------------------------------------------------------|

After that just repeat the chords

C Csus4
e|--8---------------------8------------------------------------------------|
B|--8---------------------8------------------------------------------------|
G|--9---------and---------10-----------------------------------------------|
D|--10--------------------10-----------------------------------------------|
A|-------------------------------------------------------------------------|
E|-------------------------------------------------------------------------|

| / slide up
| slide down
| h hammer-on
| p pull-off
| ~ vibrato
| + harmonic
| x Mute note

PLEASE rate my tab and post corrections blah blah bhaw.
============================================================================
Intro/Verse

e|--------------------------------------8--------------------------------------------|
b|------------------8-------------8-------8----------8-------------------------------|
g|--------9-------------9h10----------------10---------------------------------------|
d|---10----10------------------------------------------------------------------------|
a|-----------------------------------------------------------------------------------|
e|-----------------------------------------------------------------------------------|

Pre-Chorus:play around with C and F.

Chorus:C and F I think.
Solo:? I haven't figured it out yet but i bet it doesn't stray far from C and F (even the
intro is just F moved up to the eighth fret)

If you figure out the solo,e-mail me at betterthantremonti@yahoo.com and i'd be real
greatful.I hope you like it.