Audio Adrenaline — Start A Fire

----------------------------------------------------------------------------
Start A Fire - By Audio Adrenaline
----------------------------------------------------------------------------
Tabbed by: Clay Jinks
Email: ClaytonJinks@yahoo.com

Tuning: Standard (E)

Intro/Verse/Chorus

e|-------------------------------------------------------------------------|
B|------------------------------------------------------------------------|
G|----------777--999--------------777--999---------------------------------|
D|--9-9-99--777--999--9-9-99------777--999---------------------------------|
A|--9-9-99--555--777--9-9-99------555--777---------------------------------|
E|--7-7-77------------7-7-77-----------------------------------------------|

****Note: On the verse, palm mute the chords above.


Pre-Chorus

e|-------------------------------------------------------------------------|
B|-------------------------------------------------------------------------|
G|--7-8-99-xxxx--999--xx-7-8-99-xxxx--999----------------------------------|
D|--7-8-99-xxxx--999--xx-7-8-99-xxxx--999----------------------------------|
A|--5-6-77-xxxx--777--xx-5-6-77-xxxx--777----------------------------------|
E|-------------------------------------------------------------------------|


| / slide up
| slide down
| h hammer-on
| p pull-off
| ~ vibrato
| + harmonic
| x Mute note
============================================================================