Audio Adrenaline — This Day

This Day
Audio Adrenaline

Intro
C F G
C-----Am F C

Verse 1
C
It's six A.M.
Am
I'm so tired
Em
The alarm sounds
F G
A new day begins
C
Before I go
Am
And disturb this peaceful moment
Em G
I look to You

Chorus
C F
I want to say a prayer
G C--------*-------Am
Before my feet can hit the ground
F G
Lord I give this day to You

Verse 2
I'm amazed
How you forgive me
Yesterday seems so far behind
It's a brand new day
And every day's a new beginning
I look to You

Bridge
C
Breathe in
Am
Breathe out
G
Breathe in
C Am G
And watch the day begin
(G)
I wanna watch the day begin



TAB

Intro
riff*
/------------
|----0-------------------0-------------------0--------------------|
|------1-3p1-3p1-----------1-3p1-3p1-----------1-3p1-3p1----------|
|----------------0-------------------0-------------------0--------|
|-----------------------------------------------------------------|
|3----------------------------------------------------------------|
|--------------------1-------------------3------------------------|

|----0-------------------0-------------------0---------------0----|
|------1-3p1-3p1-----------1-3p1-3p1-----------1-3p1-3p1-----1----|
|----------------0-------------------0-------------------0---0----|
|------------------------------------------------------------2----|
|3-------------------0---------------------------------------3----|
|----------------------------------------1------------------------|

Note:
C------*-----Am is just a normal finger picking run from C to Am minor

C Am
A|3-----2----0-|