Audio Adrenaline — Underdog

На этой странице Вы можете ознакомиться с 2 версиями подбора аккордов для гитары к песне "Underdog" группы (исполнителя) "Audio Adrenaline".

Audio Adrenaline
Song Title: Underdog
Tab done by: Jared Harrison (Massive J)


Intro
G--------------|
D--------------|
A----22-----33-|
E-33----00-----|


Verses 4x
G---------------------------------|
D---------------------------------|
A-3333333322222222----------------|
E-----------------000000003-3-3-3-|


The little bridge between the verse and chorus
is the same thing as the intro. Its also the
chorus, but they just play each note more than
twice. Well that is basically it. Peace Out.
Underdog – Audio Adrenaline

Intro: G5(355xxx),B5(x24400),E5(x79900) C5(x35500)

Verse: (bass only)
C(x32010) B(x24442) E (022000)
I am so weak and I’m so tired, its hard for me to
C B E
Find enough strength to feed the fire, and
Fuel my ego
(Enter guitar pickage)
e----0---------0-------------------|
B--3----3----3----3-----0---0---0--|
G-5-5--5-5--4-4--4-4--0----0---0---|
D--------------------2-2--2---2----|
C B Em

e----0----------------------------------|
B--3----3------5-7-5--------------------|
G-5-5--5-5--5/7-7-7-7-------------------|
D-----------------------5---5---5---5---|
A-----------------------5---5---5---5---|
E-----------------------3-X-3-X-3-X-3-X-|
C D G5

G5 B5
Chorus: Been beat up. Been broken down
E5 C5 C5
Nowhere but up when your face down on the ground
G5 B5
I’m in last place, if I place at all
E5 C5
But there’s hope for this underdog.
G5 B5 E5 C5
That’s the way uh huh we like it, uh huh uh huh
G5 B5 E5
That’s the way uh huh we like it, they call me the underdog

Post-chorus riff:
G--0-0-0-------------| (This same riff is played
D-5-4-2-0------------| four times right at the
A---------2h3p2h3p2--| end of the song)

Verse 2 is the same notes picked as first

Bridge: No guitar while the guy preaches, then
G-------------------------|
D-5--5--5--5--5--7--9--9--|
something like that,
while someone sings the first part of chorus in the background

Chorus