Audio Adrenaline — Walk On Water

Walk On Water
Audio Adrenaline
Bloom

INTRO
G------------------------------------------------------------
D------------------------------------------------------------
A--5-5-5-5-4-7------------------5-5-5-5-4-7------------------
E------------------5-5-5-5-4-0-------------------5-5-5-5-4-7-
play twice

VERSE

G---------------------------------------
D--------------------------------------- play
A-5-5-5-5-5-5-7-7----------------------- three
E-----------------------5-5-5-5-5-5-5-5- times

play intro once
play verse once

CHORUS
G---------------------------------------------------------------------------
D---------------------------------------------------------------------------
A-2-2-2-2-2-5-5-5-5-5-5-5-0-0-4-0-5-5-5-5-4-0-0-4-0-5-5-5-5-4-2-2-2-2-2-5-5-
E---------------------------------------------------------------------------

play intro during guitar solo
play chorus three times
play verse
play chorus twice
play intro to fade

Please send any corrections or differences you have


tabbed by Jeremy Hilterbrand