Audioslave — Bring Em Back Alive

На этой странице Вы можете ознакомиться с 3 версиями подбора аккордов для гитары к песне "Bring Em Back Alive" группы (исполнителя) "Audioslave".

by:josh
band:Audioslave
album:Audioslave
song:Bring Em Back Alive
tuning:E A D G B E

this is an awsome song you should check it out.....
and the album is awsome to....

key:
x = muted string
()= harmonic
intro
E-8-7---7---7---7---7---6-5---5---5---5---5---
B-----5---5---5---5---5-----3---3---3---3---3-
G---------------------------------------------
D---------------------------------------------
A---------------------------------------------
E---------------------------------------------

E-5-3---3---3---3---3---3-2---2---2---2---2---
B-----1---1---1---1---1-----0---0---0---0---0-
G---------------------------------------------
D---------------------------------------------
A---------------------------------------------
E---------------------------------------------

preverse : only played before 1st verse :
just chop on this for a few seconds
E-----------------------------
B-----------------------------
G-----------------------------
D-9-9-9-9-9-9-9-9-9-9-9-9-9-9-
A-7-7-7-7-7-7-7-7-7-7-7-7-7-7-
E-----------------------------

verse
E----------------------
B----------------------
G----------------x-x-7-
D----------------x-x-7-
A----------------x-x-5-
E--0-0-5-3-0-3-0-------
pm . . . . . . .

chorus
E-----------------------
B-----------------------
G-----------------------
D-----------------------
A-------------------7-7-
E-0-0-3-5-3-0-2-3-2-5-5-

solo
sorry no idea what it is

breakdown
E-------------------------------------
B-------------------------------------
G-------------------------------------
D-------------------------------------
A-7-x-7-x-7-x-7-x-7-x-7-x-7-x-7-x-----
E---------------------------------(7)-


order:
intro 2x
preverse
chorus 8x
verse 12x
chorus 8x
verse 12x
chorus 8x
solo
breakdown 8x
chorus 8x
artist: audioslave
song: Bring Em Back Alive
tabbedby: thedarkwinbass@yahoo.com

4-string w/ E tunned down to B.
from low to high: B A D G

intro:
|------------------------------|
|------------------------------|
|------------------------------|
|--0--12-0-910-0--6-0-5--0-3--|4x

4 measure rest

|------------------| |-------------------|
|------------------| |-------------9999-|
|------------------| |-------------------|
|-5555555555555555-|3x|-555555555555------|

|-------------------------------|
|-------------------------------|
|-------------------------------|
|--0--12-0-910-0--6-0-5--0-3---|
repeat 4x
|-------------------------------| /
|-------------------------------| /
|-------------------------------| /
|--3--10-0-910-3-5-6-0-5--3-5--|/

verse:
|---------------------------|
|---------------------------|
|---------1------0----------|
|--5-3-xx---5-xx---5-xxx-8--|12x

chorus:
|-------------------------------|
|-------------------------------|
|-------------------------------|
|--0--12-0-910-0--6-0-5--0-3---|
repeat 4x
|-------------------------------| /
|-------------------------------| /
|-------------------------------| /
|--3--10-0-910-3-5-6-0-5--3-5--|/

verse:
|---------------------------|
|---------------------------|
|---------1------0----------|
|--5-3-xx---5-xx---5-xxx-8--|10x

chorus:
|-------------------------------|
|-------------------------------|
|-------------------------------|
|--0--12-0-910-0--6-0-5--0-3---|
repeat 3x
|-------------------------------| /
|-------------------------------| /
|-------------------------------| /
|--3--10-0-910-3-5-6-0-5--3-5--|/

|-------------------------------|
|-------------------------------|
|-------------------------------|
|--0--12-0-910-0--6-0-5--0-3---|

|-------------------------------|
|-------------------------------|
|-------------------------------|
|--3-5-6-0-5--3-5-6-0-5--3-5----|

solo:
|------------------------------14-14-14-------------|
|---------------------------------------13h14-13h14-|
|---------------------------------------------------|
|-0000000000000000000000000000----------------------|

|------------------------------14-14-14-14-14-14----|
|---------------------------------------------------|
|---------------------------------------------------|
|-0000000000000000000000000000----------------------|

|--------------------------------|
|--------------------------------|
|--2-0-2-----2-0-2-----2-0-2-----|
|---------6---------5---------3--|4x

|--------------------------------|
|--------------------------------|
|--0-2-5-----0-2-5-----0-2-5-----|
|---------6---------5---------3--|4x

rest, then
|--------------------------|
|--------------------------|
|--------------------------|
|--5-5----5-5----55----55--|

|------------------------------------|
|-----------------------------9999--|
|------------------------------------|
|-5555555555555555555555555555-------|

repreat chorus before solo and end with
|------------|
|------------|
|------------|
|--3-5--3-5--|

sounds close enough. enjoy it.
comments welcomed.
Audioslave - Bring Em Back Alive

Tabbed By Stephen Pang (piequat@hotmail.com)

Intro
G|-----------------------------|
D|----9---7h8------------------|
A|----------------8---7--------|
E|-7----7------7----7----7-10--|

G|-----------------|
D|-----------------|
A|-----------------|
E|-0-0-0-0-0-0-0-0-|

Chorus
G|----------------------------|----------------------------|
D|----9---7h8-----------------|----7---6h7-----------------|
A|----------------8---7----5--|-5----5-----5-7-8---7--5-7--|
E|-7----7------7----7----7----|------------------7---------|

G|----------------------------|
D|----------------------------|
A|-5-7-8---7--5-7-8---7--5-7--| (ending to last 2 choruses)
E|-------7----------7---------|

Verse
G|---------------------------|
D|--------8------7--------5--|
A|-7-5--x---7--x---7--x-x----|
E|---------------------------|

Pre-Solo
G|-----------------|
D|-----------------|
A|-----------------|
E|-7-7-7-7-7-7-7-7-|

Solo
G|-----------------------------|
D|-9-7-9------9-7-9-----9-7-9--|
A|-------7-8-------------------|
E|------------------10---------|

G|-----------------------------|
D|---7-9--------7-9-------7-9--|
A|-9-----7-8--9---------9------|
E|------------------10---------|

After Solo
G|------------|
D|------------|
A|------------|
E|-0-0--------|

G|-----------------|
D|-----------------|
A|-----------------|
E|-0-0-0-0-0-0-0-0-|