Audioslave — Cochise

На этой странице Вы можете ознакомиться с 6 версиями подбора аккордов для гитары к песне "Cochise" группы (исполнителя) "Audioslave".

Audioslave - Cochise

Tabbed By Stephen Pang (piequat@hotmail.com)

Intro (come in after a few bars)
G|-----------------|
D|-----------------|
A|-----------------|
E|-0-0-0-0-0-0-0-0-|

Verse
G|--------------------------------|
D|-0/2--------------0/2-----------|
A|-----5-2-5-2-----------5-2------|
E|-------------3-0-----------3-0--|

Chorus
G|-------|------------------------|
D|-0--1--|-2--2-----------------0-|
A|-0--1--|--------------------2---|
E|-------|-------5-3-0--3--5------|

Bridge
G|------------|------------|----|
D|------------|------------|----|
A|-2----2-----|-7----7-----|-5--|
E|----0----0--|----0----0--|----|
Artist:Audioslave
Song:Cochise(bass)
Tab By:James Burrell


Intro (come in after a few bars)
G|-----------------|
D|-----------------|
A|-----------------| x24
E|-0-0-0-0-0-0-0-0-|

Verse
G|--------------------------------------|
D|--------------------------------------| x11
A|----5/7---5---5---------5/7 5---------|
E|------------7---3--0----------7-3--0--|

Chorus
G|-------|------------------------|
D|-------|------------------------| x4
A|-5--6--|---7--7-------------5---|
E|-------|--------5-3-0-3-5-7-----|

Bridge x4 x4
G|------------|------------|----|
D|------------|------------|----|
A|-2----2-----|-7----7-----|-5--|
E|----0----0--|----0----0--|----|

Im pretty Sure that thats It almost exactly. e-mail me at Drunk_Polarbear@hotmail.com
if you think i need to fix anything or if you have any other comments.
AUDIOSLAVE                TABBED BY MARK ARMENTA 

COCHISE

THIS IS A GREAT SONG SO I THOUGHT I WOULD TAB IT OUT FOR YOU GUYS SO
YOU CAN ENJOY IT AS WELL.

FIRST OFF FOR THE INTRO YOU NEED CRANK SOME DISTORTION WITH A SLAP-
BACK DELAY

--------------------------------------------------------------------
--------------------------------------------------------------------
-X-X-X-X--X-X-X-X--X-X-X-X--X-X-X-X---------------------------------
-X-X-X-X--X-X-X-X--X-X-X-X--X-X-X-X-------PLAY 7x-------------------
-X-X-X-X--X-X-X-X--X-X-X-X--X-X-X-X---------------------------------
-X-X-X-X--X-X-X-X--X-X-X-X--X-X-X-X---------------------------------

---------------------------------------------------------
----0------------(0)------------(0)----------------------
-0--0------------(0)------------(0)----------------------
-2--2------------(2)------------(2)----------------------
-2--2------------(2)------------(2)----------------------
----X----------------------------------------------------
PICK SCRAPE WHILE LETTING RING OUT AND PLAY 6X

MAIN RIFF (DELAY EFFECT OFF) (^)=HAMMER

----------------------------------------|
----------------------------------------|
----------------------------------------|
-0^2--0---2-------0^2-:--0--------------|
--------2---2--------------2------------|
--------------3-0------------3-0--------|
================================
CHORUS | REPEAT AS NEEDED |
--------------------------------------|-------------------------------|
--------------------------7--------8-----------------------------------
--------------------------7--------8-----------------------------------
-0^2---0-----0------------7--------8----0^2--0^2----------------------0
----------2-----2---------5--------6---------------0----------0----2---
-------------------3--0---5--------6-----------------3--0---3----------

INTERLUDE
(WITH DELAY EFFECT ON TREM.PICK)(32nd NOTES)


__(BEND EACH NOTE 1/2)_______________________
|---------------------------------------------|-----------
|---------------------------------------------|------.------
-2--2--2--2---2--2--2--2-----2--2--2--2---2--2----2-2-/14--
-----------------------------------------------------------
-----------------------------------------------------------
-----------------------------------------------------------

b=bend r=release each bend is 1/2

----------------------------------------------------------------------
----------------------------------------------------------------------
-14b-r14---14b-r14---14b-r14---14b-r14---14b-r14---14b--14-14-14(14)
---------------------------------------------------------------------0
---------------------------------------------------------------------0
----------------------------------------------------------------------
(GO BACK TO MAIN RIFF)

BRIDGE

-------------------------------------------------------
---.---------------------------------------------------
--4-----------------4-----(4)--------------------------REPEAT
-x------------------------------------.----------------
--------2-----(2)--------------------2-------x---------
-------------------------------------------------------

---------------------------------R-|-----------------
---------------------------------E-|-----------------
----.----------------------------P-|------------7----
-0^2-------------0^2--(2)--------E-|-2----------7----
----------------------------.----A-|------------5----
----------0--(0)-----------0---x-T-|-----0-----------


------------------------------------------------
------------------------------------------------
------------------------------------------------REPEAT
-9-----9--------------------------------0------
-7-----7----0-------------.-----0----2---------
----------------3--0--(0)-3---------------------


AND WELL THATS ABOUT IT MORE AUDIOSLAVE SONGS COMING SOON!
Audioslave - Cochise
====================

ok this is quite an easy song for morello!
this song is pretty good, their first single.
all the other tabs of this make the intro riff really hard to play!
its basically in one postion, using the E minor pentatonic scale.

Intro - i don't think he uses any real effects just mutes the strings.
e|-----------------------------------------------------------------------------|
B|-xxxxxxxxxxxxxxxxxxxxxxxxxxxxxxxxxxxxxxxxxxxxxxxxxxxxxxxxxxxxxxx-------------|
G|-xxxxxxxxxxxxxxxxxxxxxxxxxxxxxxxxxxxxxxxxxxxxxxxxxxxxxxxxxxxxxxx-------------|
D|-xxxxxxxxxxxxxxxxxxxxxxxxxxxxxxxxxxxxxxxxxxxxxxxxxxxxxxxxxxxxxxx-------------|
A-------------------------------------------------------------------7~~--------|
E|------------------------------------------------------------------0~~--------|


Intro Riff/Verse
e|-----------------------------------------------------------------------------|
B|-----------------------------------------------------------------------------|
G|-----------------------------------------------------------------------------|
D|-2-0---0---------2--0--------------------------------------------------------|
A|-----2---2------------2------------------------------------------------------|
E|-----------3-0----------3-0--------------------------------------------------|

Last Time Of Verse
e|-----------------------------------------------------------------------------|
B|-----------------------------------------------------------------------------|
G|-----------------------------------------------------------------------------|
D|-2-0---0---------7--8--------------------------------------------------------|
A|-----2---2-------5--6--------------------------------------------------------|
E|-----------3-0---------------------------------------------------------------|

Chorus
e|-----------------------------------------------------------------------------|
B|-----------------------------------------------------------------------------|
G|-----------------------------------------------------------------------------|
D|-9-9---------------0---------------------------------------------------------|
A|-7-7--0--------0-2-----------------------------------------------------------|
E|--------3-0--3---------------------------------------------------------------|

Solo - very very simple solo, tremolo picking, gradual bending.
e|-----------------------------------------------------------------------------|
B|-----------------------------10b---------------------------------------------|
G|-----------------------------------------------------------------------------|
D|---8b------------------------------------------------------------------------|
A|-----------------------------------------------------------------------------|
E|-----------------------------------------------------------------------------|

Interlude Part 1
e|-----------------------------------------------------------------------------|
B|-----------------------------------------------------------------------------|
G|-4-----4---------------------------------------------------------------------|
D|-----------------------------------------------------------------------------|
A|-----2-----2-----------------------------------------------------------------|
E|-----------------------------------------------------------------------------|

Interlude Part 2 - ( ) = Last time only.
e|-----------------------------------------------------------------------------|
B|-----------------------------------------------------------------------------|
G|-----------------------------------------------------------------------------|
D|-2-----2----------(7)--------------------------------------------------------|
A|------------------(5)--------------------------------------------------------|
E|------0-----0----------------------------------------------------------------|


End
e|-----------------------------------------------------------------------------|
B|-----------------------------------------------------------------------------|
G|-----------------------------------------------------------------------------|
D|-9--9/-----------------------------------------------------------------------|
A|-7--7/-----------------------------------------------------------------------|
E|-----------------------------------------------------------------------------|

Order:
Intro
Intro Riff/Verse x11
Last Time Of Verse x1
Chorus x4
Solo x1
Intro Riff/Verse x7
Last Time Of Verse x1
Chorus x8
Interlude Part 1 x4
Interlude Part 2 x4
Chorus (clean) x4
Chorus x8
End x1

email: getcha_grooveon@hotmail.com - jack lloyd-jones
-------------------------------------------------------------------------------
Cochise - Audioslave
-------------------------------------------------------------------------------
Tabbed by:Fuzzy1823

Tuning:EADGBe

| / slide up
| slide down
| h hammer-on
| p pull-off
| ~ vibrato
| + harmonic
| x Mute note

I saw them play live. On the Connan O'Brian show Tom played it like this.
Im writing this song in order to.

Intro Use slap back delay muffle the strings and slap'em over an over then
do this. Wah wah toe down.
e|---------------------------------------------------------------------------|
B|0--------------------------------------------------------------------------|
G|0--------------------------------------------------------------------------|
D|2--------------------------------------------------------------------------|
A|2--------------------------------------------------------------------------|
E|xpickscrape----------------------------------------------------------------|


Main Riff/Verse distortion
e|---------------------------------------------------------------------------|
B|---------------------------------------------------------------------------|
G|---------------------------------------------------------------------------|
D|---------------------------------------------------------------------------|
A|-7-5---5------------7-5----------------------------------------------------|
E|-----7---7--3-0---------7-3-0----------------------------------------------|


Chourus dist.
e|---------------------------------------------------------------------------|
B|---------------------------------------------------------------------------|
G|---------------------------------------------------------------------------|
D|---------------------------------------------------------------------------|
A|-7-7-5---------------------------------------------------------------------|
E|-------3-0-3-3h5-5---------------------------------------------------------|


Pre verse thing
e|---------------------------------------------------------------------------|
B|---------------------------------------------------------------------------|
G|-2b-2b-2b-2b/--14b 14b 14b 14b 14b 14b-------------------------------------|
D|---------------------------------------------------------------------------|
A|---------------------------------------------------------------------------|
E|---------------------------------------------------------------------------|


Main Riff/Verse distortion
e|---------------------------------------------------------------------------|
B|---------------------------------------------------------------------------|
G|---------------------------------------------------------------------------|
D|---------------------------------------------------------------------------|
A|-7-5---5------------7-5----------------------------------------------------|
E|-----7---7--3-0---------7-3-0----------------------------------------------|


Chourus dist.
e|---------------------------------------------------------------------------|
B|---------------------------------------------------------------------------|
G|---------------------------------------------------------------------------|
D|---------------------------------------------------------------------------|
A|-7-7-5---------------------------------------------------------------------|
E|-------3-0-3-3h5-5---------------------------------------------------------|


Bridge wah wah effect
e|---------------------------------------------------------------------------|
B|---------------------------------------------------------------------------|
G|--4----4-------------------------------------------------------------------|
D|----------------2----2-----------------------------------------------------|
A|----2----2-----------------------------------------------------------------|
E|------------------0---0----------------------------------------------------|


Chourus dist. use rear pick up
e|---------------------------------------------------------------------------|
B|---------------------------------------------------------------------------|
G|---------------------------------------------------------------------------|
D|---------------------------------------------------------------------------|
A|-7-7-5---------------------------------------------------------------------|
E|-------3-0-3-3h5-5---------------------------------------------------------|


I belive that is it if you have any questions or comment my Aim Is fuzz1824
Verse:
e ----------------------------------
B ----------------------------------
G ----------------------------------
D ----------------------------------
A -5h7--5---5----------5h7--5------- Reapeat 4 times for intro
E --------7---7-3-0-----------7-3-0- then reapeat 7 times for Verse

Then...
e -------------------------------
B -------------------------------
G -------------------7---8-------
D -------------------7---8-------
A -5h7--5---5--------5---6-------
E --------7---7-3-0--5---6-------

Chorus:
e ---------------------------
B ---------------------------
G ---------------------------
D ---------------------------
A --5h7-5h7--------------5---
E ----------5-3-0--3-5-7-----

Solo:
Tremelo pick * * *
e --------------------------|--------------------------
B --------------------------|--------------------------
G --------------------------|--------------------------
D --7--9--9--9--9-----------|--7--9--9--9--9-------7/--
A --------------------------|--------------------------
E --------------------------|--------------------------
* * * * * * * * *
e ------------------|-----------------------------------------------
B ------------------|-----------------------------------------------
G --14b-14-14b-14---|--14b-rp-rp-rp-rp--14b-rp-rp-rp-14-14b-14-14b--
D ------------------|-----------------------------------------------
A ------------------|-----------------------------------------------
E ------------------|-----------------------------------------------

Break:
e ----------------------------|
B ----------------------------|
G ----------------------------|
D ----------------------------| x4
A ---9---9--------------------|
E -----7---7------------------|

e --------------------------|
B --------------------------|
G --------------------------|
D --------------------------| x3
A --14----14----------------|
E -----0-----0--------------|

e --------------------------|
B --------------------------|
G ---------------7----------|
D ---------------7----------|
A --7------------5----------|
E -----0----0---------------|

Breakdown Riff:
e -----------------------------------|
B -----------------------------------|
G --9----9---------------------------|
D --9----9---------------------------| X4
A --7----7-------------------------5-|
E -----------5--3--0----3---5---7----|

End Chorus:
Repeat chorus then finish with:
e --------------------------|
B --9-----9----------------|
G --9-----9----------------|
D --9-----9----------------|
A --7-----7----------------|
E --------------------------|