Audioslave — Exploder

На этой странице Вы можете ознакомиться с 3 версиями подбора аккордов для гитары к песне "Exploder" группы (исполнителя) "Audioslave".

artist: audioslave
song: Exploder
tabbedby: thedarkwinbass@yahoo.com

easy song Craig had the basics down.
bass doesn't do the bend.

Standard Tunning

intro; just guitar and drums

verse:
G|---------------------------|
D|--4------------4-----------|
A|---------------------------|
E|-----2-0-2--0----2-0-2--0--|8x

chorus:
G|----------------------------------------------------------|
D|--4------------4----------------4------------4------------|
A|---------------------------xxx----------------------------|
E|-----2-0-2--0----2-0-2--0--xxx-----2-0-2--0----2-0-2--0---|4x

verse:
G|---------------------------|
D|--4------------4-----------|
A|---------------------------|
E|-----2-0-2--0----2-0-2--0--|12x

chorus:
G|----------------------------------------------------------|
D|--4------------4----------------4------------4------------|
A|---------------------------xxx----------------------------|
E|-----2-0-2--0----2-0-2--0--xxx-----2-0-2--0----2-0-2--0---|4x

solo: (bass w/ overdrive)
G|-----------------------------| |-----------------------------|
D|--4------------4-------------| |--4------------4-------------|
A|-----------------------------| |-----------------------------|
E|-----2-0-2--0----2-0-2--0-0--|7x|-----2-0-2--0----2-0-2--0-2--|

verse: (clean)
G|-------------------------------------------------------------------|
D|-44444444444444444444444444444444-22222222222222222222222222222222-|
A|-------------------------------------------------------------------|
E|-------------------------------------------------------------------|2x

chorus:
G|----------------------------------------------------------|
D|--4------------4----------------4------------4------------|
A|---------------------------xxx----------------------------|
E|-----2-0-2--0----2-0-2--0--xxx-----2-0-2--0----2-0-2--0---|4x

outro:
G|--------------------|
D|--------------------|
A|--4--2--4--2--2--2--|
E|--2--2--2--2--2--2--|
AUDIOSLAVE - EXPLODER

TUNING ( E A D G B E )


INTRO
|-----------------------|
|---7-7-7-7-7-7-7...7---|
|-----------------------|
|-----------------------|
|-----------------------|
|-----------------------|

VERSE

|---------------------------------------|
|---7-7-7-7-7-7...7---5-5-5-5-5-5...5---|
|---------------------------------------|
|---------------------------------------|
|---------------------------------------|
|---------------------------------------| x2

CHORUS

|----------------------------------------------|
|----------------------------------------------|
|---------------------------------------X--X---|
|---4---------------4---------------4---X--X---|
|---------------------------------------X--X---|
|------2--0--2--0------2--0--2--0-------X--X---|

|-----------------------------------------|
|-----------------------------------------|
|-----------------------------------------|
|---4---------------4---------------------|
|-----------------------------------------|
|------2----0--2--0------2--0--2--0---3---| x4

SOLO (WHAMMY)

|-------------------------------------------------------------------|
|---0-7-0-7-0-7-0-7-0-7-0-7-0-7---0-5-0-5-0-5-0-5-0-5-0-5-0-5-0-5---|
|-------------------------------------------------------------------|
|-------------------------------------------------------------------|
|-------------------------------------------------------------------|
|-------------------------------------------------------------------|

|-----------------------------------------------|
|---0-7-0-10---0-7-0-12---0-7-0-14---0-7-0-15---|
|-----------------------------------------------|
|-----------------------------------------------|
|-----------------------------------------------|
|-----------------------------------------------|

|-------------0------0-----------------------|
|---0-5-0-10-----10-----9---5--3--2--0-------|
|---------------------------------------2~---|
|--------------------------------------------|
|--------------------------------------------|
|--------------------------------------------|

END (WHAMMY)

|----------------------------|
|---7---7---7---7---7---7~---|
|---4---4---4---4---4---4~---|
|----------------------------|
|----------------------------|
|----------------------------|
-------------------------------------------------------------------------------
Exploder - AudioSlave
-------------------------------------------------------------------------------
Tabbed By : Craig Fox
e-mail: thebebop14752@bolt.com

Tuning: Norm

this is a really easy song the only exeption is i couldn't figure out the part
during tom's solo (considering i don't have a bass i think i did good)

Intro / Verse
G|---------------------------------------------------------------------------|
D|-4------------------4------------------------------------------------------|
A|---------------------------------------------------------------------------|
E|----2--0--2--0---------2--0--2--0------------------------------------------|

Chorus

G|---------------------------------------------------------------------------|
D|--4-------------------4----------------------------------------------------|
A|---------------------------------------------------------------------------|
E|-----2--0--2--0----------2--0--2--0---x-x-x-x------------------------------|

G|---------------------------------------------------------------------------|
D|--4----------------4-------------------------------------------------------|
A|---------------------------------------------------------------------------|
E|-----2--0--2--0-------2--0--2--0-----3/up---------------------------------|

this is the end part imitating the guitar part

G|---------------------------------------------------------------------------|
D|---------------------------------------------------------------------------|
A|--10-10-10-10--10-10-10-10--10-10-10-10--10-10-10-10-----------------------|
E|---------------------------------------------------------------------------|

G|---------------------------------------------------------------------------|
D|---------------------------------------------------------------------------|
A|--8-8-8-8--8-8-8-8--8-8-8-8--8-8-8-8---------------------------------------|
E|---------------------------------------------------------------------------|