Audioslave — Gasoline

На этой странице Вы можете ознакомиться с 5 версиями подбора аккордов для гитары к песне "Gasoline" группы (исполнителя) "Audioslave".

GASOLINE 
Artist - Audioslave
Album - Audioslave
Bassist - Tim Commerford
Tab By - Dan Baker bassplayerbaker@hotmail.com

Drop B Tuning (Low to High: B A D G - The 10th fret on the E String is A)

Rest during Guitar Intro

INTRO (Distorted) |------------Repeat-1x------------|
G ---------------------------------|---------------------------------|
D ---------------------------------|---------------------------------|
A -----------------0h2-----2-------|-2---------------0h2-----2-------|
B -0-----0-3h5---0-----------------|---0---0-3h5---0-----------------|
1 e + a 2 e + a 3 e + a 4 e + a | 1 e + a 2 e + a 3 e + a 4 e + a |

G ---------------------------------|
D ---------------------------------|
A ---------------------------------|
B -5-5-3-5-3-0-0---~---~---~---~---|
1 e + a 2 e + a 3 + 4 + 5 + 6 + |

PREVERSE
|------------Repeat-3x------------|
G ---------------------------------|
D ---------------------------------|
A -----------------0h2-----2-------|
B -0-----0-3h5---0-----------------|
1 e + a 2 e + a 3 e + a 4 e + a |

VERSE (Play Twice)
|------------Repeat-3x------------|
G ---------------------------------|
D ---------------------------------|
A -----------------0h2-----2-------|
B -0-----0-3h5---0-----------------|
1 e + a 2 e + a 3 e + a 4 e + a |

G ---------------------------------|---------------------------------|
D -------------------------0-------|-------------------------2-------|
A -----------------0h2-------------|-----------------0h2-------------|
B -0-----0-3h5---0-----------------|-0-----0-3h5---0-----------------|
1 e + a 2 e + a 3 e + a 4 e + a | 1 e + a 2 e + a 3 e + a 4 e + a |

|------------Repeat-1x------------|
G ---------------------------------|
D ---------------------------------|
A -----------------0h2-----2-------|
B -0-----0-3h5---0-----------------|
1 e + a 2 e + a 3 e + a 4 e + a |

FIRST CHORUS (Distorted) |------------Repeat-2x------------|
G ---------------------------------|---------------------------------|
D ---------------------------------|---------------------------------|
A -----------------0h2-----2-------|-2---------------0h2-----2-------|
B -0-----0-3h5---0-----------------|---0---0-3h5---0-----------------|
1 e + a 2 e + a 3 e + a 4 e + a | 1 e + a 2 e + a 3 e + a 4 e + a |

|------------Repeat-2x------------|
G ---------------------------------|
D -----------------2-0-------------|
A ---------------------2-0-----0h2-|
B -0-----0-3h5---0-----------------|
1 e + a 2 e + a 3 e + a 4 e + a |

G ---------------------------------|
D ---------------------------------|
A ---------------------------------|
B -5-5-3-5-3-0-0---~---~---~---~---|
1 e + a 2 e + a 3 + 4 + 5 + 6 + |

Repeat VERSE

SECOND CHORUS (Distortion) |------------Repeat-2x------------|
G ---------------------------------|---------------------------------|
D ---------------------------------|---------------------------------|
A -----------------0h2-----2-------|-2---------------0h2-----2-------|
B -0-----0-3h5---0-----------------|---0---0-3h5---0-----------------|
1 e + a 2 e + a 3 e + a 4 e + a | 1 e + a 2 e + a 3 e + a 4 e + a |

|------------Repeat-2x------------|
G ---------------------------------|---------------------|
D -----------------2-0-------------|-2-0-----------------|
A ---------------------2-0-----0h2-|-----2-0-------------|
B -0-----0-3h5---0-----------------|---------5-5-0---~---|
1 e + a 2 e + a 3 e + a 4 e + a | 1 + 2 + 3 + 4 + 5 + |

PRESOLO (Rest for 4 Bars - Distortion)
|------------------------------Repeat-1x----------------------------|
G ---------------------------------|---------------------------------|
D ---------------------------------|---------------------------------|
A ---------------------------------|-2-2-2-2-2-2-2-2-2-2-2-2-2-2-2-2-|
B -0-0-0-0-0-0-0-0-0-0-0-0-0-0-0-0-|---------------------------------|
1 e + a 2 e + a 3 e + a 4 e + a | 1 e + a 2 e + a 3 e + a 4 e + a |

SOLO
G ---------------------------------|---------------------------------|
D ---------------------------------|---------------------------------|
A -----------------0h2-----2-------|-2-------2h5-----0h2-----2-------|
B -0-----0-3h5---0-----------------|---0---0-------0-----------------|
1 e + a 2 e + a 3 e + a 4 e + a | 1 e + a 2 e + a 3 e + a 4 e + a |

G ---------------------------------|---------------------------------|
D ---------------------------------|---------------------------------|
A -2-------2h5-----0h2-----2-------|-2-------2h5-----7b--7-5-7b--7-5-|
B ---0---0-------0-----------------|---0---0-------0-----------------|
1 e + a 2 e + a 3 e + a 4 e + a | 1 e + a 2 e + a 3 e + a 4 e + a |

G ---------------------------------|---------------------------------|
D ---------------------------------|---------------------------------|
A -----------------0h2-----2-------|-----------------0h2-----2-------|
B -5-5-3-5-3-0---0-----------------|-5-5-3-5-3-0---0-----------------|
1 e + a 2 e + a 3 e + a 4 e + a | 1 e + a 2 e + a 3 e + a 4 e + a |

G ---------------------------------|---------------------------------|
D ---------------------------------|---------------------------------|
A -----------------0h2-----2-------|-----------------7b--7-5-7b--7-5-|
B -5-5-3-5-3-0---0-----------------|-5-5-3-5-3-0---0-----------------|
1 e + a 2 e + a 3 e + a 4 e + a | 1 e + a 2 e + a 3 e + a 4 e + a |

BRIDGE (Rest for 8 Bars - Distortion)
|--------------Repeat-1x------------|
G -----------------|-----------------|
D -----------------|-----------------|
A -----------------|-----------------|
B -3---------------|-0---------------|
1 + 2 + 3 + 4 + | 1 + 2 + 3 + 4 + |

Repeat SECOND CHORUS

OUTRO (Distortion)
G ---------------------------------|---------------------|
D ---------------------------------|-2-0-----------------|
A -----------------0h2-----2-------|-----2-0-------------|
B -0-----0-3h5---0-----------------|---------5-5-0---~---|
1 e + a 2 e + a 3 e + a 4 e + a | 1 + 2 + 3 + 4 + 5 + |

G ---------------------------------|-----------------|-----------------|
D ---------------------------------|-2-0-------------|-----------------|
A -----------------0h2-----2-------|-----2-0---------|-----------------|
B -0-----0-3h5---0-----------------|---------5-5-0---|-~---~---~---~---|
1 e + a
Gasoline - Audioslave

Tabbed By Stephen Pang (piequat@hotmail.com)

* Dropped B Tuning * (yes, it's a B, not D)

Guitar plays 4 bars, then

Intro
G|-----------------------|-------------------------|
D|-----------------------|-------------------------|
A|-----------------------|-------------------------|
B|-0--0-3h5--0-10h12-12--|-3-0--0-3h5--0-10h12-12--|

G|-------------------------|----------------|
D|-------------------------|----------------|
A|-------------------------|----------------|
B|-3-0--0-3h5--0-10h12-12--|-5-5-3h5-3-0-0--|

Verse 1
G|--------------------|
D|--------------------|
A|-------------0h2-2--| x8
B|-0--0-3h5--0--------|

G|--------------------|--------------------|
D|--------------------|--------------------|
A|-0-----------0h2-5--|-0-----------0h2-7--|
B|----0-3h5--0--------|----0-3h5--0--------|

G|--------------------|
D|--------------------|
A|-------------0h2-2--| x6
B|-0--0-3h5--0--------|

G|--------------------|--------------------|
D|--------------------|--------------------|
A|-0-----------0h2-5--|-0-----------0h2-7--|
B|----0-3h5--0--------|----0-3h5--0--------|

G|--------------------|
D|--------------------|
A|-------------0h2-2--| x2
B|-0--0-3h5--0--------|

Chorus 1
G|-----------------------|-------------------------|
D|-----------------------|-------------------------|
A|-----------------------|-------------------------|
B|-0--0-3h5--0-10h12-12--|-3-0--0-3h5--0-10h12-12--|

G|-------------------------|-------------------------|
D|-------------------------|-------------------------|
A|-------------------------|-------------------------|
B|-3-0--0-3h5--0-10h12-12--|-3-0--0-3h5--0-10h12-12--|


G|--------------------------|--------------------------|
D|--------------------------|--------------------------|
A|-------------5p2-0----0h2-|-------------5p2-0----0h2-|
B|-0--0-3h5--0-------3------|-0--0-3h5--0-------3------|

G|--------------------------|-----------------|
D|--------------------------|-----------------|
A|-------------5p2-0----0h2-|-----------------|
B|-0--0-3h5--0-------3------|-5-5-3h5-3-0-0---|

Verse 2
G|--------------------|
D|--------------------|
A|-------------0h2-2--| x4
B|-0--0-3h5--0--------|

G|--------------------|--------------------|
D|--------------------|--------------------|
A|-0-----------0h2-5--|-0-----------0h2-7--|
B|----0-3h5--0--------|----0-3h5--0--------|

G|--------------------|
D|--------------------|
A|-------------0h2-2--| x6
B|-0--0-3h5--0--------|

G|--------------------|--------------------|
D|--------------------|--------------------|
A|-0-----------0h2-5--|-0-----------0h2-7--|
B|----0-3h5--0--------|----0-3h5--0--------|

G|--------------------|
D|--------------------|
A|-------------0h2-2--| x2
B|-0--0-3h5--0--------|

Chorus 2
G|-----------------------|-------------------------|
D|-----------------------|-------------------------|
A|-----------------------|-------------------------|
B|-0--0-3h5--0-10h12-12--|-3-0--0-3h5--0-10h12-12--|

G|-------------------------|-------------------------|
D|-------------------------|-------------------------|
A|-------------------------|-------------------------|
B|-3-0--0-3h5--0-10h12-12--|-3-0--0-3h5--0-10h12-12--|

G|--------------------------|--------------------------|
D|--------------------------|--------------------------|
A|-------------5p2-0----0h2-|-------------5p2-0----0h2-|
B|-0--0-3h5--0-------3------|-0--0-3h5--0-------3------|

G|--------------------------|------------------|
D|--------------------------|------------------|
A|-------------5p2-0----0h2-|-2-0--------------|
B|-0--0-3h5--0-------3------|-----7-5-3-3-0-0--|

Pre Solo (guitar plays 4 bars first)
G|-----------------|-------------------------|
D|-----------------|-------------------------|
A|-----------------|-------------------------| x2
B|-0-0-0-0-0-0-0-0-|-12-12-12-12-12-12-12-12-|

Solo
G|--------------------|----------------------|
D|--------------------|----------------------|
A|-------------0h2-2--|-5-2----5h7----0h2-2--|
B|-0--0-3h5--0--------|------0------0--------|

G|----------------------|-----------------------------|
D|----------------------|-----------------------------|
A|-5-2----5h7----0h2-2--|-5-2----5h7----7b-7-5-7b-7-5-|
B|------0------0--------|------0------0---------------|

G|---------------------|---------------------|
D|---------------------|---------------------|
A|---------------0h2-2-|---------------0h2-2-|
B|-5-5-3h5-3-0-0-------|-5-5-3h5-3-0-0-------|

G|---------------------|-----------------------------|
D|---------------------|-----------------------------|
A|---------------0h2-2-|---------------7b-7-5-7b-7-5-|
B|-5-5-3h5-3-0-0-------|-5-5-3h5-3-0-0---------------|

Bridge (guitar plays without bass for a while)
G|------|------|------|-------------------------|
D|------|------|------|-------------------------|
A|------|------|------|-------------------------|
B|-3----|-0----|-3----|-12-12-12-12-12-12-12-12-|

Last Chorus
G|-----------------------|-------------------------|
D|-----------------------|-------------------------|
A|-----------------------|-------------------------|
B|-0--0-3h5--0-10h12-12--|-3-0--0-3h5--0-10h12-12--|

G|-------------------------|-------------------------|
D|-------------------------|-------------------------|
A|-------------------------|-------------------------|
B|-3-0--0-3h5--0-10h12-12--|-3-0--0-3h5--0-10h12-12--|

G|--------------------------|--------------------------|
D|--------------------------|--------------------------|
A|-------------5p2-0----0h2-|-------------5p2-0----0h2-|
B|-0--0-3h5--0-------3------|-0--0-3h5--0-------3------|

G|--------------------------|------------------|
D|--------------------------|------------------|
A|-------------5p2-0----0h2-|-2-0--------------|
B|-0--0-3h5--0-------3------|-----7-5-3-3-0-0--|

G|--------------------------|------------------|
D|--------------------------|------------------|
A|-------------5p2-0----0h2-|-2-0--------------|
B|-0--0-3h5--0-------3------|-----7-5-3-3-0-0--|

G|--------------------------|------------------|
D|--------------------------|------------------|
A|-------------5p2-0----0h2-|-2-0--------------|
B|-0--0-3h5--0-------3------|-----7-5-3-3-0-0--|
Tabbed by:THE SANDMAN
Email:ryan5@iamwasted.com


Standard Tuning

INTRO
E --------------------------------------|---------------------------------|
B --------------------------------------|---------------------------------|
G --------------------------------------|---------------------------------|
D --------------------------------------|---------------------------------|
A -----------------------/7-----7-------|-------------7-------------------|
E -12/--0-----0-3h5---0---------0-------|-5-5-3-5-3-0-0-------------------|


E --------------------------------------|---------------------------------|
B --------------------------------------|---------------------------------|
G --------------------------------------|---------------------------------|
D --------------------------------------|---------------------------------|
A ---------------------/7-------7-------|-------------7-------------------|
E --3---0---0-3h5---0-----------0-------|-5-5-3-5-3-0-0-------------------|


VERSE (Tremolo Pedal Or Delay)
E -----------------------------------|-----------------------------------|
B -----------------------------------|-----------------------------------|
G --------------------------9---8----|---------------------------9---8---|
D –4-----------------4---------------|-4-----------------4---------------|
A –2-----------------2---------------|-2-----------------2---------------|
E -----------------------------------|-----------------------------------|


CHORUS (Distortion)
E --------------------------------------|---------------------------------|
B --------------------------------------|---------------------------------|
G --------------------------------------|---------------------------------|
D --------------------------------------|---------------------------------|
A ------------------------7-----7-------|-------------7---~-------~-------|
E -12/--0-----0-3h5---0---------0-------|-5-5-3-5-3-0-0---~-------~-------|
Gasoline; Audioslave

Audioslave


Dropped B tuning


x3 x3
E------|------------------|----------------|----------------------|
B------|------------------|----------------|----------------------|
G------|------------------|----------------|----------------------|
D------|------------------|----------------|----------------------|
A------|------------------|-------------2--|----------------------|
B--12-|-0-3h5-0-10h12-12-|-5-5-3-3-5-3-0--|0-0-3h5-0-10h12-12-12p|


Verse
With stuttering tremelo and wah

x3
E------|-----------|-----------|
B------|-------5-4-|-----------|
G------|4---(4)----|-------9-8-|
D------|4---(4)----|7---(7)----|
A------|2---(2)----|7---(7)----|
B------|-----------|10--(10)---|


Chorus
x3 x3
E------|----------------------|-------------------|---------------|
B------|----------------------|-------------------|---------------|
G------|----------------------|-------------------|---------------|
D------|----------------------|-------------------|---------------|
A------|----------------------|--------5p2p0---0h2|------------2--|
B-/12-|0-0-3h5-0-10h12-12-12p|0-0-3h5------5p3---|5-5-3-3-5-3-0--|


2nd Chorus

x3 x3 b up 1/4 step
E------|----------------------|-------------------|---------------|
B------|----------------------|-------------------|---------------|
G------|----------------------|-------------------|---------------|
D------|----------------------|-------------------|---------------|
A------|----------------------|--------5p2p0---0h2|2-0------------|
B-/12-|0-0-3h5-0-10h12-12-12p|0-0-3h5------5p3---|----7-5-3b-3b-0|


Interlude

x7
E--|-------------------|----------------------|
B--|0-0-3h5-0-10h12-12-|0-10h12-12-0-10h12-12-|
G--|-------------------|----------------------|
D--|-------------------|----------------------|
A--|-------------------|----------------------|
B--|-------------------|----------------------|


Solo


here goes;

need to harmonize an octave lower, distortion, and wah.
Preferably in this order, especially the wah being AFTER
distortion.

x3 x2
E--|-------------------------|------------------|
B--|-------------------------|5b(7)5-3-5b(7)5-3-| Repeat, then repeat
G--|4p2-4-0-4-2-4---2-4h5p4-0|------------------| last measure x24.
D--|-------------------------|------------------| (12 bars)
A--|-------------------------|------------------|
B--|-------------------------|------------------|


Repeat 2nd Chorus


Outro


E--|-------------------|------------------|
B--|-------------------|------------------|
G--|-------------------|------------------| Repeat
D--|-------------------|------------------|
A--|-------------------|------------------|
B--|0-0-3h5-0-10h12-12-|12-10-7-5-3b-3b-0-|
You're going to have to trust me on this tuning. I've seen him live twice
and I am 100% sure this is how he plays the song.

Tuning: Low E string down to a B.

Intro:
e|------------------------------------------------------------------------
B|------------------------------------------------------------------------
G|------------------------------------------------------------------------
D|------------------------------------------------------------------------
A|------------------------------------------------------------------------
B|---//12---0--0---3H5---0--10H12---12//---0--0---3H5---0--10H12---12//---

e|-----------------------------------------------------|
B|-----------------------------------------------------|
G|-----------------------------------------------------|
D|-----------------------------------------------------|
A|---------------------------------------------------2-|
B|---0--0---3H5---0--10H12---12//---5-5--3--5--3--0--0-|

Whole Band Comes In:
e|------------------------------------------------------------------
B|------------------------------------------------------------------
G|------------------------------------------------------------------
D|------------------------------------------------------------------
A|------------------------------------------------------------------
B|---12//---0--0---3H5---0--10H12---12//---3P0--0---3H5---0--10H12--

e|----------------------------------------------------------|
B|----------------------------------------------------------|
G|----------------------------------------------------------|
D|----------------------------------------------------------|
A|--------------------------------------------------------2-|
B|12//---3P0--0---3H5---0--10H12--12//---5-5--3--5--3--0--0-|

Verse 1: With tremelo

e|--2----2------------2----2----------
B|--4----4----5---4---4----4----5---4-
G|--4----4------------4----4----------
D|--4----4------------4----4---------- / Twice, then...
A|--2----2------------2----2---------- /
B|------------------------------------/

e|--0----0------------2----2----------|
B|--2----2----5---4---4----4----5---4-|
G|--2----2------------4----4----------|
D|--2----2------------4----4----------|
A|--0----0------------2----2----------|
B|------------------------------------|


Chorus:

e|------------------------------------------------------------------
B|------------------------------------------------------------------
G|------------------------------------------------------------------
D|------------------------------------------------------------------
A|------------------------------------------------------------------
B|---12//---0--0---3H5---0--10H12---12//---3P0--0---3H5---0--10H12--


e|----------------------------------------------------------------
B|----------------------------------------------------------------
G|----------------------------------------------------------------
D|----------------------------------------------------------------
A|----------------------------------------------------------------
B|12//---3P0--0---3H5---0--10H12--12//---3P0--0---3H5---0--10H12--


e|-------------------------------------------------------------------------
B|-------------------------------------------------------------------------
G|-------------------------------------------------------------------------
D|-------------------------------------------------------------------------
A|-----------------------5--2--------0H2------------------5--2--------0H2--
B|12//---0--0---3H5---0--------5--3-------0--0---3H5---0--------5--3-------


e|----------------------------------------------------------------|
B|----------------------------------------------------------------|
G|----------------------------------------------------------------|
D|----------------------------------------------------------------|
A|-------------------5--2--------0H2------------------------------|
B|---0--0---3H5---0--------5--3--------12---10---7---5---3--3--0--|

Verse 2:With Tremelo

e|--2----2------------2----2----------
B|--4----4----5---4---4----4----5---4-
G|--4----4------------4----4----------
D|--4----4------------4----4---------- / Twice, then...
A|--2----2------------2----2---------- /
B|------------------------------------/

e|--0----0------------2----2----------|
B|--2----2----5---4---4----4----5---4-|
G|--2----2------------4----4----------|
D|--2----2------------4----4----------|
A|--0----0------------2----2----------|
B|------------------------------------|

Chorus #2:

e|------------------------------------------------------------------
B|------------------------------------------------------------------
G|------------------------------------------------------------------
D|------------------------------------------------------------------
A|------------------------------------------------------------------
B|---12//---0--0---3H5---0--10H12---12//---3P0--0---3H5---0--10H12--


e|----------------------------------------------------------------
B|----------------------------------------------------------------
G|----------------------------------------------------------------
D|----------------------------------------------------------------
A|----------------------------------------------------------------
B|12//---3P0--0---3H5---0--10H12--12//---3P0--0---3H5---0--10H12--


e|-------------------------------------------------------------------------
B|-------------------------------------------------------------------------
G|-------------------------------------------------------------------------
D|-------------------------------------------------------------------------
A|-----------------------5--2--------0H2------------------5--2--------0H2--
B|12//---0--0---3H5---0--------5--3-------0--0---3H5---0--------5--3-------


e|----------------------------------------------------------------|
B|----------------------------------------------------------------|
G|----------------------------------------------------------------|
D|----------------------------------------------------------------|
A|-------------------5--2--------0H2------------------------------|
B|---0--0---3H5---0--------5--3--------12---10---7---5---3--3--0--|


Solo:

e|---------------------------------------------------------
B|---0---0--3H5---0--10H12--12--0---0--3H5---0--10H12--12--
G|--------------------------------------------------------- Three times
D|--------------------------------------------------------- /
A|--------------------------------------------------------- /
B|---------------------------------------------------------/

e|---------------------------------------------------------
B|---0---0--3H5---0--10H12--12--0--10H12--12--0--10H12-----
G|---------------------------------------------------------
D|---------------------------------------------------------
A|---------------------------------------------------------
B|---------------------------------------------------------

Add Wah Effects
e|------------------------------------------------
B|------------------------------------------------
G|------------------------------------------------ Times Three
D|--------------------12------------------12------ /
A|---14P12--14P12--14-----14---14P12--14-----14P12 / This Whole
B|------------------------------------------------/ /Thing 2X
/
e|-------------------------------------------------------------| /
B|-------------------------------------------------------------|
G|-------------------------------------------------------------|
D|--14B16--14--12--14B16--14--12--14B16--14--12--14B16--14--12-|
A|-------------------------------------------------------------|
B|-------------------------------------------------------------|

Repeats this while Chris sings:

e|-------------------------------------------------------------|
B|-------------------------------------------------------------|
G|-------------------------------------------------------------|
D|--14B16--14--12--14B16--14--12--14B16--14--12--14B16--14--12-|
A|-------------------------------------------------------------|
B|-------------------------------------------------------------|

Back to the Chorus:

e|------------------------------------------------------------------
B|------------------------------------------------------------------
G|------------------------------------------------------------------
D|------------------------------------------------------------------
A|------------------------------------------------------------------
B|---12//---0--0---3H5---0--10H12---12//---3P0--0---3H5---0--10H12--


e|----------------------------------------------------------------
B|----------------------------------------------------------------
G|----------------------------------------------------------------
D|----------------------------------------------------------------
A|----------------------------------------------------------------
B|12//---3P0--0---3H5---0--10H12--12//---3P0--0---3H5---0--10H12--


e|-------------------------------------------------------------------------
B|-------------------------------------------------------------------------
G|-------------------------------------------------------------------------
D|-------------------------------------------------------------------------
A|-----------------------5--2--------0H2------------------5--2--------0H2--
B|12//---0--0---3H5---0--------5--3-------0--0---3H5---0--------5--3-------


e|----------------------------------------------------------------|
B|----------------------------------------------------------------|
G|----------------------------------------------------------------|
D|----------------------------------------------------------------|
A|-------------------5--2--------0H2------------------------------|
B|---0--0---3H5---0--------5--3--------12---10---7---5---3--3--0--|


e|------------------------------------------------------
B|------------------------------------------------------
G|------------------------------------------------------
D|------------------------------------------------------
A|------------------------------------------------------
B|---0--0---3H5---0--10H12---12---10---7---5---3--3--0--

e|------------------------------------------------------|
B|------------------------------------------------------|
G|------------------------------------------------------|
D|------------------------------------------------------|
A|------------------------------------------------------|
B|---0--0---3H5---0--10H12---12---10---7---5---3--3--0--|

Fades Out...

Lyrics:

House is haunted
I just want to go for a ride
Out and on
Before I set this room alight
Left alone forever and for crimes unclear
With my patience gone
Someone take me far from here

Burning that gasoline

New day yawning another day of solitaire
House is honest
Clearly more than I bear
Drag me off
Before I set my world on fire
Out and gone the sun will never
Set tonight

Burning that gasoline

No what for's, only a can
Of red says danger on it
I have found another way
Burning that gasoline

Burning that gasoline