Audioslave — Getaway Car

На этой странице Вы можете ознакомиться с 3 версиями подбора аккордов для гитары к песне "Getaway Car" группы (исполнителя) "Audioslave".

audioslave : getaway car
tabbedby: thedarkwinbass@yahoo.com

standard tunning

intro/verse/chorus/outro:
e|-------------------------------------0--|
B|------------------8---------------------|
G|--2----4--5--5--------2----4--5--5------|
D|--3----5--5--7--------3----5--5--7------|
A|----------------------------------------|
E|----------------------------------------|

prechorus:
C F Em Dm Am Bm E E7
e|-(0)----------1--3--0-------------------(0)------0--|
B|--1----0-1-3--1--1--0---3-1-0--3--1--3---0---3------|
G|--0----0-0-0--2--2--0---0-0-0--2--2--4---1---1------|
D|--2-----------3--x--2---------(0)(0)-----2---2------|
A|--3----------(3)----2--------------------2---2------|
E|--------------------0--------------------0---0------|
when playin F just
move pinky down
Am F Em Dm Am Bm E E7
e|-(0)----------1--3--0-------------------(0)------0--|
B|--1----0-1-3--1--1--0---3-1-0--3--1--3---0---3------|
G|--2----2-2-2--2--2--0---0-0-0--2--2--4---1---1------|
D|--2-----------3--x--2---------(0)(0)-----2---2------|
A|--0----------(3)----2--------------------2---2------|
E|--------------------0--------------------0---0------|

solo: *full *1/2
e|---------------------------------------------------------------------
B|---------------------------------------------------------------------
G|----------5------------------------------5-7b--b^--b^--5-4--b^-------
D|------5-7---7--------5-7-5--------5----7-----------------------5---5-
A|--5-7------------5-7-------7--5-7--------------------------------7---
E|---------------------------------------------------------------------
*1/2 *1/2 *1/2 *1/2 *full
------------------------------------------------------------7-----|
---8-----8-8-8--------------7b----------------------------5-------|
---7b----7---7b---------5-7-7b----7b-5-----7b-5--------5----------|
-------------------5-7-----------------7-5------7-5-7-------------|
------------------------------------------------------------------|
------------------------------------------------------------------|

all bends are bend and release.
on the b^, while the note prior is ringing, bend it w/o stiking the note.
..that's about it. hope you enjoy it. have fun w/ it. comments welcomed.
order of song:
intro
verse 2x
prechorus
verse 3x
prechorus
chorus 2x
solo
prechorus
chorus 3x
by:josh
band:Audioslave
album:Audioslave
song:Getaway Car
tuning:E A D G B E
date:November 31, 2002

great song off their debut album....by the way this solo
took what seemed like f*ckin forever....

key:
slide up = su
slide down = sd
bend = b
slight bend = sb
let ring = ~

intro/verse : clean
E-------------------15sd---------------------12sd-
B-10~-11~-15~-13~----------10~-11~-15~-13~--------
G-------------------------------------------------
D--7~--8~-12~-10~-----------7~--8~-12~-10~--------
A-------------------------------------------------
E-------------------------------------------------

guitar 2 in background fades in towards the end of
the second verse just repeat several times
E------
B------
G------
D-9b---
A------
E------

chorus : clean
E-----------------------------------
B-----------------------------------
G-2~---4-5-4-------7-2-4-5-2~-5-5-4-
D------------5--7-------------------
A-0~---2-3-2-------5-0-2-3-0~-3-3-2-
E------------3--5-------------------

solo : clean maybe a lil reverb i dont know
E------------------------------------------------------------
B------------------------------------------------------------
G--------------------------------------------12b-12b-12b-12b-
D-2su-7-9-10-7--------7-h-10-7--7-10-9--9-10-12b-12b-12b-12b-
A--------------7-h-10----------------------------------------
E------------------------------------------------------------

E-------------------------------------------------------------
B-------------------------------------------------------------
G-------12b-12b-12b-12b-------12-12b-12b-------12----------12-
D-14-12-12b-12b-12b-12b-12-14----12b-12b-12-14----14-12-14----
A-------------------------------------------------------------
E-------------------------------------------------------------

E----------------------------------------
B-----------------------------------12sb-
G-14b-12-------14b-12-------------9------
D--------14-12--------14-12----10--------
A---------------------------12-----------
E----------------------------------------

outro
E-------------------15sd-------------------
B-10~-11~-15~-13~----------10~-11~-15~-13~-
G------------------------------------------
D--7~--8~-12~-10~-----------7~--8~-12~-10~-
A------------------------------------------
E---------------------------------------8~-

order:
intro/verse 3x
chorus 2x
intro/verse 3x
chorus 2x
intro/verse 2x
solo 1x
chorus 2x
intro/verse 2x
outro 1x
Getaway Car Solo

Tabbed by: the Goat
Email: wildgeetar@hotmail.com

Tuning: standard

This is a pretty easy solo, it's based on the D-minor pentatonic box fingering pattern:

e|-------------------------------------------------------------------------|
B|-------------------------------------------------------------------------|
G|---------5------------------------5-7br-7-7br-5-4-5p4--------------------|
D|-----5-7---7------5h7p5-------5-7---------------------5---5--------------|
A|-5h7----------5h7-------7-5h7---------------------------7----------------|
E|-------------------------------------------------------------------------|


e|------------------------------------------------------7------------------|
B|-----7br-7-7br---------7br--------------------------5--------------------|
G|---5-7br-7-7br-----5---7br--7br-5-----7br-5-------5----------------------|
D|-7-------------5h7---7------------7p5-------7p5-7------------------------|
A|-------------------------------------------------------------------------|
E|-------------------------------------------------------------------------|

That's all, then back into the chorus. Figure out the rhythm by listening to the song,
not very difficult.