Audioslave — Hypnotize

На этой странице Вы можете ознакомиться с 3 версиями подбора аккордов для гитары к песне "Hypnotize" группы (исполнителя) "Audioslave".

artist: audioslave
song: hypnotize
tabbedby: thedarkwinbass@yahoo.com

5-string bass tunned low to high: B E A D G
: slide into
/ : slide out of

intro/verse/chorus:
|----------------------|
|----------------------|
|-------5-----5--------|
|--57-----7-----7/----|
|-------------------0--|

interlude:
|--------------------------------|
|--------------------------------|
|--0----0----2----2----0----0----|
|--------------------------------|
|--------------------------------|
whole notes, let ring

outro:
|--------------------------------------------------|
|--------------------------------------------------|
|-------5-----5-------5-----5-------5-----5--------|
|--57-----7-----57-----7-----57-----7-----7/----|
|-----------------------------------------------0--|

and if you don't have a 5-string, get one.
well here's what i do for a 4-string
tunned low to high: B A D G

intro/verse/chorus:
|-----------------------------|
|-----------------------------|
|-----------------------------|
|--1012--15--12--15--12/--0--|

interlude: same as above

outro:
|-------------------------------------------------------------------|
|-------------------------------------------------------------------|
|-------------------------------------------------------------------|
|--1012--15--12--15--1012--15--12--15--1012--15--12--15--12/--0--|


that's it. there's no bass in the guitar whammy solo. there's some
rests here and there. the bass ends before the guitar. nice groovy
some. enjoy it. comments welcomed.
Band:Audioslave
Song:Hypnotize
Bassist:Tim Commerford
Tuning:Dropped D

Ok ive been waiting for some1 to tab this song so since no1 will ill do it
myself listen to the song to know the timing and speed of sliding.
I updated it so now its as i play it.

Intro/Verse
G-----------
D-----------
A----5-0-5--
D-2h5-----05


Chorus
(oh no dont you keep your good luck...)
G-------------
D----5-0-5----
A-2h5-----0-5-
D-------------

Thats pretty much the whole song, there are other ways of playing it but this
is the way i do. Jus repeat the same thing over and over and over and over.
RATM-timc
band:Audioslave
album:Audioslave
song:Hypnotize
tuning:E A D G B E
date:December 12, 2002

key:
slow bend up = bu

intro and verse
E-0-----0-----------------------------------------------------
B-0-----0-----------------------------------------------------
G-2bu---4-----------------------------------------------------
D-------------------------------------------------------------
A-------------------------------------------------------------
E-------------------------------------------------------------

chorus 1
E-------------------------------------------------------------
B-10-10-10-10-10-10-10--8-8-8-8-8-8-8-------------------------
G--7--7--7--7--7--7--7--5-5-5-5-5-5-5-------------------------
D--9--9--9--9--9--9--9--7-7-7-7-7-7-7-------------------------
A-------------------------------------------------------------
E-------------------------------------------------------------

chorus 2 and 3
E---------
B---------
G-2-----4-
D-2-----4-
A-0-----2-
E---------