Audioslave — I Am The Highway

На этой странице Вы можете ознакомиться с 5 версиями подбора аккордов для гитары к песне "I Am The Highway" группы (исполнителя) "Audioslave".

I Am the Highway Chords
Hope you don't have a hard time following this, sorry it's the first time I tried to tab a song

Chords Am, F, C, G, Dm ,E



F, C, G, Am,
Pearls And swine bereft of me
F, C, G, Am,
long and weary my road has been
F, C Am
i was lost in the cities
G, C Am,
alone in the hills
F, C, G, C Am,
no sorrow or pity for leaving i feel
C G, Dm,
i am not your rolling wheels
Am,
i am the highway
C, G, Dm,
i am not your carpet ride
E slide to 007500
i am the sky........ E---------
B---------
G--5------
D--7------
A---------
E---------


Before second verse 4X -------> E---------
B---------
G--5------
D--7------
A---------
E---------

F, C,
friends and liars
G, Am,
don't wait for me
F, C,
cause i'll get on
G, Am,
all by myself
F, C Am,
I put millions of miles
G, Am C,
under my heels
F, C Am, G, Am C,
and still too close to you i feel

C, G, Dm,
i am not your rolling wheels
Am,
i am the highway
C, G, Dm,
i am not your carpet ride
Am,
i am the sky
C, G, Dm
i am not your blowing wind
Am
i am the lightining
C, G, Dm
i am not your autumn moon


007500 Slide to E 2X
i am the ni.............ght

E, 007500
the ni.............ght

Didn't get the solo

C, G, Dm,
i am not your rolling wheels
Am,
i am the highway
C, G, Dm,
i am not your carpet ride
Am,
i am the sky
C, G, Dm
i am not your blowing wind
Am
i am the lightining
C, G, Dm
i am not your autumn moon


E 007500(If thats a chord)
i am the ni.............ght

E, 007500
the ni.............ght

yeah...yeah 4X
E---------
B---------
G--5------
D--7------
A---------
E---------
I have compiled a couple of other tabs along with my own to make how I
think this song goes. If you have corrections email me at bretl_34@hotmail.com
(Go easy on me, I've only been playing about 8 months, and I'm 16.)

-----------------------------------------------------------------------------
I AM THE HIGHWAY - Audioslave
-----------------------------------------------------------------------------
Tabbed by: Bret Laprarie
Email: bretl_34@hotmail.com

Tuning: standard

Chords: Am, F, C, G, Dm ,E

INTRO
A
e|-------------0------------------|
B|-------------1------------------|
G|-------------2------------------|
D|-------------2------------------| x4
A|-------0-----0------------------|
E|--------------------------------|

VERSE

F, C, G, Am,
Pearls And swine bereft of me
F, C, G, Am,
long and weary my road has been
F, C Am
i was lost in the cities
G, C Am,
alone in the hills
F, C, G, C Am,
no sorrow or pity for leaving i feel


CHORUS

C G, Dm,
i am not your rolling wheels
Am,
i am the highway
C, G, Dm,
i am not your carpet ride
E slide to 007500
i am the sky........


Guitar 2
e|-----------------------|-------------------------|
B|--1--------------------|--1----------------------|
G|-----------------------|-------------------------|
D|----2------------------|----2--------------------|
A|------0--3-----5--0----|------0--3-----5---------|
E|------------3----------|------------3-----0------|


BRIDGE
A
e|-------------0------------------|
B|-------------1------------------|
G|-------------2------------------|
D|-------------2------------------| x4
A|-------0-----0------------------|
E|--------------------------------|

VERSE 2

F, C,
friends and liars
G, Am,
don't wait for me
F, C,
cause i'll get on
G, Am,
all by myself
F, C Am,
I put millions of miles
G, C Am,
under my heels
F, C Am, G, C Am,
and still too close to you i feel


CHORUS

C, G, Dm,
i am not your rolling wheels
Am,
i am the highway
C, G, Dm,
i am not your carpet ride
Am,
i am the sky
C, G, Dm
i am not your blowing wind
Am
i am the lightining
C, G, Dm
i am not your autumn moon

007500 Slide to E 2X
i am the ni.............ght

E, 007500
the ni.............ght

Guitar 2
e|----------------------------------|
B|--1-------------------------------|
G|-------------------0--------------|
D|----2------------2----------------|
A|------0--3-----------0----5--0----|
E|------------3---------------------|

e|----------------------------------|
B|--1-------------------------------|
G|-----------------0----------------|
D|----2----------2----7-------------|
A|------0--3--------------5--0------|
E|------------3---------------------|

e|----------------------------------|
B|--1-------------------------------|
G|-------------------0--------------|
D|----2------------2----------------|
A|------0--3-----------0----5--0----|
E|------------3---------------------|

e|----------------------------------|
B|--1-------------------------------|
G|-----------------0----------------|
D|----2----------2----7-------------|
A|------0--3-------------5----------|
E|------------3--------------0------|

The solo tab sounds good, just use it.

CHORUS 3

C, G, Dm,
i am not your rolling wheels
Am,
i am the highway
C, G, Dm,
i am not your carpet ride
Am,
i am the sky
C, G, Dm
i am not your blowing wind
Am
i am the lightining
C, G, Dm
i am not your autumn moon


E 007500(If thats a chord)
i am the ni.............ght

E, 007500
the ni.............ght


Guitar 2
e|----------------------------------|
B|--1-------------------------------|
G|-------------------0--------------|
D|----2------------2----------------|
A|------0--3-----------0----5--0----|
E|------------3---------------------|

e|----------------------------------|
B|--1-------------------------------|
G|-----------------0----------------|
D|----2----------2----7-------------|
A|------0--3--------------5--0------|
E|------------3---------------------|

e|----------------------------------|
B|--1-------------------------------|
G|-------------------0--------------|
D|----2------------2----------------|
A|------0--3-----------0----5--0----|
E|------------3---------------------|

e|----------------------------------|
B|--1-------------------------------|
G|-----------------0----------------|
D|----2----------2----7-------------|
A|------0--3-------------5----------|
E|------------3--------------0------|

OUTRO
A
e|-------------0------------------|
B|-------------1------------------|
G|-------------2------------------|
D|-------------2------------------| x8
A|-------0-----0------------------|
E|--------------------------------|


=============================================================================
--Audioslave--
I Am The Highway

Tabbed by mark8@jippii.fi
Mail me if you have any questions or corrections

Figure out rhythm by yourself. Itґs quite easy.
Standard tuning (EADGBe)

CHORDS
F C G Am Dm E
|--1---0---3---0---1---0--|
|--1---1---0---1---3---0--|
|--2---0---0---2---2---1--|
|--3---2---0---2---0---2--|
|------3-------0-------2--|
|----------3-----------0--|

INTRO
C G Dm Am
|---3---3---1---0---|
|ґ--1---0---3---1--ґ|
|---0---0---2---2---|
|---2---0---0---2---|
|ґ--3-----------0--ґ|
|-------3-----------|


FILL1
|-----0----0--0--0----0---|
|ґ----0----0--0--0----0--ґ|
|-----5----5--5--5----5---|
|-----7----7--7--7----7---|
|ґ--0---------------0----ґ|
|-------------------------|

VERSE 1
F C G Am
Pearls of swine bereft of me
F C G Am
Long and weary my road has been
F C Am
I was lost in the cities
G C Am
Alone in the hills
F C Am G C Am
No sorrow or pity for the leaving I feel
FILL2
|------------|
|------------|
|--2---------|
|----2-------|
|------0--3--|
|------------|

CHORUS1
C G Dm
I am not your rolling wheels
Am FILL2
I am the highway
C G Dm
I am not your carpet ride
E
I am the sky

FILL1

F C G Am
Friends and liars don't wait for me
F C G Am
I'll get on all by myself
F C Am
I put millions of miles
G C Am
Under my heels
F C Am G C Am
And still too close to you I feel

FILL2

CHORUS2
C G Dm
I am not your rolling wheels
Am FILL2
I am the highway
C G Dm
I am not your carpet ride
Am FILL2
I am the sky
C G Dm
I am not your blowing wind
Am FILL2
I am the lightening
C G Dm
I am not your autumn moon
E
I am the night

SOLO
=N.H. (natural harmonic)
b= bend
(5)=silence note
GTR2 F C G Am
|---------------------------------------------------------------------------------------|
|-----------------------------8--5--8--8--5---------------------------------------------|
|-----5-----5-----5--5--7--7-----------------7--5-----5-----5--5-----5--7--5--4---------|
|--7-----7-----7-----------------------------------7-----5--------7--------------5------|
|-----------------------------------------------------------------------------------7b--|
|---------------------------------------------------------------------------------------|

|-------------------------------------------------------------------------------------------|
|-----------------------------------5--6----------------------------------------------------|
|--------4-----5-----5--------5--7--------5-----5---------------5---------5--------5-----|
|-----5-----7--------7-----7--------------------------7--5--(5)-7-----(5)-7-----5--7-----7--|
|--7--------------8-----8-------------------------------------------------------------------|
|-------------------------------------------------------------------------------------------|

|------------------------------0---------------------------------------------------------------|
|-----------------------------------------13---------------------------------------------------|
|---------------------------14--14------14--14--12--12------12--12-----------------------|
|--7-------------------------------------------------14----------12-------------------|
|--------------------------------------------------------------------------15b--12-12b------|
|------------------------------------------------------------------------------------------15--|

|--------------------------------------------------------------------------------------------12--12--|
|----------13--------------------------13------------12--13--15--15--13--13--12--12------------------|
|--14--14------14--14--12--12------12------14--14b-----------------------------------14--14----------|
|------------------------------14--------------------------------------------------------------------|
|----------------------------------------------------------------------------------------------------|
|----------------------------------------------------------------------------------------------------|

|-------------------------------------------------------------------------------------------------|
|--15--15--13--13--12--12------------------------12--12-------------------------------------------|
|--------------------------12--12---------12--12---------14--14-14-14-14-14-14-14-14-14-14-14-14--|
|----------------------------------14--14---------------------------------------------------------|
|-------------------------------------------------------------------------------------------------|
|-------------------------------------------------------------------------------------------------|

CHORUS2
FILL1
================================================================================
I AM THE HIGHWAY INTRO BY AUDIOSLAVE
================================================================================
The main chords are aleady tabed out but the intro isnt so i thought id do it,
it is also used after the chorus..

Its very easy

Standard tuning

Am is the chord

e-------0-0-0--------0-0-0----------
B-------1-1-1--------1-1-1----------
G-------2-2-2--------2-2-2----------
D-------2-2-2--------2-2-2----------
A--0----0-0-0----0---0-0-0----------
E-----------------------------------

It the goes into F when Chris Cornell begins to sing. Then as the otha tab says

i havent worked out the guitar solo but ill try!!!
I think it's all correct, listen to the song to get the timing.
rogelioatc@hotmail.com
If you have any comments or doubt just check the corrections.


e|-----------------------------------------------------------------------------
B|-----------------------------------------------------------------------------
G|-------------------------12-12-12-12-12-9------------------------------------
D|10-10-10-10-10-10-10-10-------------------12-------10-10-10-10-10----10-9-10-
A|---------------------------------------------12-------------------12---------
E|-----------------------------------------------------------------------------


e|-----------------------------------------------------------------------------
B|-----------------------------------------------------------------------------
G|-----------------------------------9-10-10-9-9-------------------------------
D|10-10----9-9-10-10-10-10-10-10-12---------------10-10------10-10-10-10-10----
A|-------------------------------------------------------12--------------------
E|-----------------------------------------------------------------------------


e|---------------10-10---------10----------------------------------------------
B|--------10-10---------10-10--------10-10-13-10-10----------------------------
G|--------------------------------12----------------12-12-9-12-12-9------------
D|---10-------------------------------------------------------------12-10------
A|12----------------------------------------------------------------------12-12
E|-----------------------------------------------------------------------------


e|-----------------------------------------------------------------------------
B|10-10-13-10-10---------------10-10-10/12-12-15-15-13-13-12-12----------------
G|---------------12-12-9-12-12-----------------------------------14-14---------
D|-----------------------------------------------------------------------------
A|-----------------------------------------------------------------------------
E|-----------------------------------------------------------------------------


e|-12-12-----------------------------------------------------------------------
B|-------15-15-13-13-12-12-------------------12-12-----------------------------
G|-------------------------12-12-------12-12-------14-14-14-14-14-14-14--------
D|-------------------------------14-14-----------------------------------------
A|-----------------------------------------------------------------------------
E|-----------------------------------------------------------------------------