Audioslave — Like A Stone

На этой странице Вы можете ознакомиться с 14 версиями подбора аккордов для гитары к песне "Like A Stone" группы (исполнителя) "Audioslave".

Song: Like A Stone
Band: Audioslave
Album: Audioslave (2002)
Tabbed By: HaVIC5
Tuning: Dropped D

Guitar Intro – Rest for 4 measures

Verse x4
G-|----------------------------------------|
D-|-----------------------------------3----|
A-|-----5-5------5-5------5-5--------5-|
D-|-5---------5---------5---------5--------|

Chorus-
G-|---------------------------------------------|
D-|----------------------------------------/7-5-|
A-|------------/8---------------------/8--------|
D-|-5---7-8---------8-5----5----8---------------|

G-|------------------------------------|
D-|------------------------------------|
A-|-/6----------/8---------/6----------|
D-|------8-5--------8-5---------8-5----|

Post Chorus-
G-|---------------------|
D-|---------------------|
A-|-5---------5---------|
D-|-----0-0-0-----0-0-0-|

Verse x4

Chorus x1

Post Chorus 2 x2

G-|----------------|
D-|----------------|
A-|-5---------5----|
D-|-----0-0-0------|

Guitar Solo (with light distortion)-
G-|------------------------------------------------|
D-|----------------------------------------/7-5/---|
A-|------------/8---------------------/8-----------|
D-|-5---7-8---------8-5----5---7-8-----------------|

G-|-------------------------------------------------------------------|
D-|-------------------------------------------------------------------|
A-|-/6-6-6-6-6-6-6-6-----------------/8-8-8-8-8-8-8-8-----------------|
D-|------------------5-5-5-5-5-5-5-5------------------5-5-5-5-5-5-5-5-|

G-|------------------------------------------------------------------|
D-|------------------------------------------------------------------|
A-|-/6-6-6-6-6-6-6-6-----------------5-5-5-5-5-5-5-5-----------------|
D-|------------------5-5-5-5-5-5-5-5-----------------0-0-0-0-0-0-0-0-|

Interlude- Rest for 8 measures before playing-
G-|-------------------------------------------------------------------|
D-|-------------------------------------------------------------------|
A-|-6-------------------6---------------------------------------------|
D-|------8----6----8---------8----0-0-0-0-0-0-0-0---------------------|

Chorus x1
Post Chorus 2 x2

Final Note-

G-|----|
D-|----|
A-|-/6-|
D-|----|

Any questions/comments can be sent to adman2020@aol.com
Audioslave - Like A Stone

Tabbed By Stephen Pang (piequat@hotmail.com)

* Dropped D Tuning *

Verse
G|-------------------------------------|
D|--------------------------------3----|
A|----------------------------------5--|
D|-5---12--5---12--5---12--5--------|

Chorus
G|--------------------|--------------------|
D|--------------------|-------------/7-----|
A|----------/8--------|---------/8-----10--|
D|-5--7-8-------8-5--|-5--7-8-------------|

G|--------------------|----------------------|
D|--------------------|----------------------|
A|-6---------8--------|-6--------5--------5--|
D|----8-5------8-5--|----8-5-----0-0-0----|

Solo Second Half
G|---------------------------------|
D|---------------------------------|
A|-6-6-6-6-6-6-6-6-----------------|
D|-----------------5-5-5-5-5-5-5-5-|

G|---------------------------------|
D|---------------------------------|
A|-8-8-8-8-8-8-8-8-----------------|
D|-----------------5-5-5-5-5-5-5-5-|

G|---------------------------------|
D|---------------------------------|
A|-6-6-6-6-6-6-6-6-----------------|
D|-----------------5-5-5-5-5-5-5-5-|

G|---------------------|
D|---------------------|
A|-5-5-5-5-5-5-5-5-5---|
D|-----------------0---|

Last Verse
G|----------------------|---------------------------|
D|----------------------|---------------------------|
A|--6--5------5--5-6--5-|-6---3---5-----------------|
D|-------8--8-----------|-----------0-0-0-0-0-0-0-0-|

G|-----------------|
D|-----------------|
A|-----------------|
D|-0-0-0-0-0-0-0-0-|
standard tuning

Am- (x02230)
G- (320003)
E- (023100)
F- (033210)
Fm- (133111)
C- (x32010)
Dm7-(xx0312)



Am G
On a cobweb afternoon
E F
In a room full of emptiness
Am G
By a freeway I confess
E F
I was lost in the pages
Am G
Of a book full of death
E F
Reading how we'll die alone
Am G
And if we're good we'll lay to rest
E F
Anywhere we want to go

(chorus)
Am C G Am
In your house I long to be
Am C G Am
Room by room patiently
Am F Am
I'll wait for you there
G Am F Am
Like a stone I'll wait for you there
E
Alone

Am
On my deathbed
G
I will pray
E F
To the gods and the angels
Am G
Like a pagan to anyone
E F
Who will take me to heaven
Am G
To a place I recall
E F
I was there so long ago
Am
The sky was bruised
G
The wine was bled
E F
And there you led me on


(chorus)
Am C G Am
In your house I long to be
Am C G Am
Room by room patiently
Am F Am
I'll wait for you there
G Am F Am
Like a stone I'll wait for you there
E E
Alone,Alone.......

F C
And on I read
E F
Until the day was done
Fm Dm7
And I sat in regret
E Am
Of all the things I've done
F C
For all that I've blessed
E F
And all that I've wronged
Fm Dm7
In dreams until my death
E
I will wander on

Repeat chorus

By Emi(boy)& Bijan paskal love aida
5 string bass or 4 string tuned to BEAD (timmy c. use a four string tuned BEAD)

Verse
G|------------------------|
D|--------------------3---|
A|-----5----5----5-----5--|
E|--3----3----3----3------|
B|------------------------|

Chorus
G|----------------------------------------------------------------------|
D|----------------------------------------------------------------------|
A|-----------8----------------8--12-10--6------8-------6------5------5--|
E|--3---5-6-----5----3---5-6---------------5------5------5--------------|
B|----------------8--------------------------8------8------8-----333----|

Verse
G|------------------------|
D|--------------------3---|
A|-----5----5----5-----5--|
E|--3----3----3----3------|
B|------------------------|

Chorus
G|-------------------------------------------------------------------------|
D|-------------------------------------------------------------------------|
A|-----------8----------------8--12-10--6------8-------6------5------5-----|
E|--3---5-6-----5----3---5-6---------------5------5------5-----------------|
B|----------------8--------------------------8------8------8-----333----333|

Solo
G|---------------------------------------------|
D|---------------------------------------------|
A|--------------8--------------------8--12-10--|
E|--3---5-6-666-----5----3---5-6-666-----------|
B|--------------------8------------------------|

G|--------------------------------------|
D|--------------------------------------|
A|--66666666----------88888888----------|
E|--------------------------------------|
B|-----------88888888----------88888888-|

G|--------------------------------|
D|--------------------------------|
A|--66666666----------88888888----|
E|--------------------------------|
B|-----------88888888----------8--|

G|----------------------------------------------|
D|----------------------------------------------|
A|--6---6----5---56--6---63---5555555555555555--|
E|-------6--------------------------or----------|
B|----------------------------3333333333333333--|

Chorus
G|-------------------------------------------------------------------------|
D|-------------------------------------------------------------------------|
A|-----------8----------------8--12-10--6------8-------6------5------5-----|
E|--3---5-6-----5----3---5-6---------------5------5------5-----------------|
B|----------------8--------------------------8------8------8-----333----333|

End On
G|-----|
D|-----|
A|--5--|
E|-----|
B|-----|
Audioslave
Like A Stone

Tabbed by Neal Petrosky
Petro525@aol.com

standard tuning
clean with tremelo pedal
intro/verse
e--------------------------------------------------------------
b--------------------------------------------------------------
g--------------------------------------------------------------
d--------------------------------------------------------------
a-13-------15----------12-------13----12-----------------------
E-----15-------13-/10-------11-----11--------------------------
chorus x2(guitar 1 still has tremelo, guitar 2 does not)
e--------------------------------------------------------------
b--------------------------------------------------------------
g-----------10-------------------------------------------------
d-5----8----10----5--------------------------------------------
a-5----8-----8----5--------------------------------------------
E-3----6----------3--------------------------------------------
last time:
e--------------------------------------------------------------
b--------------------------------------------------------------
g-8--------10----------8---------7----7------------------------
d-8----5---10----5-----8----5----7----7------------------------
a-6----5----8----5-----6----5----5----5------------------------
E------3---------3----------3----------------------------------
solo (with delay and whammy set up one octave... bend the notes with the whammy)
e--------------------------------------------------------------
b--------------------------------------------------------------
g----------------17~------------------------------------17-19--
d-17~--19--20~---------20-19-17~------17~---19-------20--------
a-----------------------------------------------20~------------
E--------------------------------------------------------------

e--18-18-17-17-------------18-18-17-17-------------------------
b--------------18-18-------------------18-18-------------------
g--------------------19-19-------------------19-19-------------
d--------------------------------------------------------------
a--------------------------------------------------------------
E--------------------------------------------------------------

e--18-18-17-17-------------18-18-17-17-------------------------
b--------------18-18-------------------18-18-------------------
g--------------------19-19-------------------19-19-------------
d--------------------------------------------------------------
a--------------------------------------------------------------
E--------------------------------------------------------------

e--------------------------------------------------------------
b--------------------------------------------------------------
g--------------------------------------------------------------
d-/5-/7-/8-/10-/12-/13-/15-/17-/19-/20-/19-/20-/19~~~----------
a--------------------------------------------------------------
E--------------------------------------------------------------
breakdown with acoustic guitar
e--6----8----5----6------6----3----5----3--
b--8----8----7----8------7----3----7----3--
g--8----7----7----8------8----5----7----3--
d--8----8----7----8------8----5----7----5--
a--6----8----5----6------6----3----5----5--
E-------6-------------------------------3--

e--6----8----5----6------6----3------------
b--8----8----7----8------7----3------------
g--8----7----7----8------8----5----7-7-7-7-
d--8----8----7----8------8----5----7-7-7-7-
a--6----8----5----6------6----3----5-5-5-5-
E-------6----------------------------------
^kick in tremelo
back into chorus
last time:
e------------------------------------------
b------------------------------------------
g--8---------7----7------7----7--------8---
d--8----5----7----7------7----7--------8---
a--6----5----5----5------5----5--------6---
E-------3----------------------------------
Standard tuning (EADG)
I think this tab is quite close to the actual bass line, but some notes are
a bit off.

VERSE
|-----------------------------|
|-----------------------------|
|----5-5----5-5----5-5----8-5-|
|-3------3------3------3------|

CHORUS 1 (Part 1)
|---------------------------------|
|---------------------------------|
|----5-8--8-10-5----5-8-8-8-12-10-|
|-3--------------3----------------|

CHORUS 1 (Part 2)
|---------------------------------------|
|---------------------------------------|
|-6--8-5--8-10-5-6--8-5~----5-------5---|
|-----------------------------3-3-3-----|


CHORUS 2 (Part 1)
|---------------------------------|
|---------------------------------|
|----5-8--8-10-5----5-8-8-8-12-10-|
|-3--------------3----------------|

CHORUS 2 (Part 2)
|-------------------------------------------------------|
|-------------------------------------------------------|
|-6--8-5--8-10-5-6--8-5~----5-------5~----5-------5~----|
|-----------------------------3-3-3---------3-3-3-------|

SOLO (Part 1)
|--------------------------------------------|
|--------------------------------------------|
|---------------8--------------------8-12-10-|
|-3--5-6--6-6-6---5-3--3--5-6--6-6-6---------|

SOLO (Part 2)
|------------------------------------------------------------------|
|------------------------------------------------------------------|
|-66666666----------88888888----------6666666----------55555555----|
|----------33333333----------33333333---------33333333----------3~-|

ACOUSTIC PART (wait a couple of bars)
|-----------------------------|------------------|
|-----------------------------|------------------|
|-----------5--5--------------|-5555555555555555-|
|-5--5-7--7------5--5--5-7--7-|------------------|

End with chorus 2, then-

A|-6~-|
-------------------------------------------------------------------------------
Like A Stone - Audioslave
-------------------------------------------------------------------------------
Tabbed By : Skunk

Tuning: Standard Tuning

It's a great song, and I'm pretty sure it's correct,
just watch the timing and the arrangements I did.

Verse

G|---------------|
D|---------------| play this 3 times
A|----x-x-5/-----|
E|-3-------------|

in the fourth time play:

G|---------------|
D|---------------|
A|----x-x-8/-----|
E|-3-------------|

Chorus

G|------------------------------------------------------------|
D|------------------------------------------------------------|
A|---------8-/------------8-8/10h12p10--6---8-/--6----5--5-|
E|-3--5-6------3--3--5-6--------------------3------3---3------|

Guitar Solo

I made some arrangements during the solo and it sound really cool
G|--------------10--------------------------------|
D|------------10----------------------------------|
A|---------8-----8/----------------8-8/10h12p10-|
E|-3--5-6-----------3--0-1-2-3--5-6---------------|

inmediatly
G|---------------------------------------------------------|
D|---------------------------------------------------------|
A|66666666--------88888888--------66666666-------55555555~-|
E|--------33333333--------33333333--------3333333----------|

Bridge

G|----------------------------------------------|
D|----------------------------------------------|
A|6---6-----5---5-6---6---6-3---55555555555555/-|
E|-----6---6------------------------------------|

Ends in
A|-6-|

Verse
Chorus
Verse
Chorus
Guitar Solo (Chorus)
Bridge
Chorus
ARTIST: Audioslave
SONG: Like A Stone
TUNING: standard
TABBED: Aaron M

fantastic song. i've gotten most of it here, the only problem is there are maybe
2 or 3 chords which don't give off the full sound that morello plays, so
corrections are very welcome and i hope someone can figure them out and any other
rusty spots for me. it's here for the most part. should be self-explanitory.

oh yea, and those lyrics are what i could pick up. if you hear something
different, i'm open. like i said, this is the best i could come up with right
now, so if you have something that fits better, please send.

riff 1 (main riff)
0:00-0:52, 1:28-2:12
E|---------------------
B|---------------------
G|-3---5--------2---8-7
D|---5----3---0--------
A|----------------6----
E|---------------------

chorus pt. 1
0:53-1:10, 2:13-2:30, 4:03-4:20
E|-----------
B|-----------
G|----------- 2x
D|-----------
A|-5--8--3--5
E|-3--6--1--3

chorus pt. 2
1:11-1:27, 2:31-2:52, 4:21-4:43
E|-----------------------
B|-----------------------
G|-----------------------
D|-8-----------8-----7--7
A|-6--5--3--5--6--5--5--5
E|----3--1--3-----3------

riff 2
2:53-3:10
E|--------------------------------------------------
B|--------------------------------------------------
G|-12~-14-15~-17-15-14-12----12~-14/10~-15-17-19-19~
D|--------------------------------------------------
A|--------------------------------------------------
E|--------------------------------------------------

riff 3
3:10-3:18
E|-18-17------18-17------18-17------18-17-----
B|------18-15------18-15------18-15------18-15
G|--------------------------------------------
D|--------------------------------------------
A|--------------------------------------------
E|--------------------------------------------

riff 4 (doesn't sound exact but will do)
3:19-3:28
E|-----------------------------------
B|-----------------------------------
G|---2-3-5-7-8-10-12-14-15-14-15-14~-
D|-5---------------------------------
A|---0-1-3-5-6--8-10-12-13-12-13-12~-
E|-3---------------------------------

(acoustic)
3:28-4:02
D# A# F Gm D#m A# F Cm
E|-6-6-6-6--6-6-6-6--1-1-1-1--3-3-3-3--6-6-6-6--6-6-6-6--1-1-1-1--3-3-3-3
B|-8-8-8-8--6-6-6-6--1-1-1-1--3-3-3-3--7-7-7-7--6-6-6-6--1-1-1-1--3-3-3-3
G|-8-8-8-8--7-7-7-7--2-2-2-2--3-3-3-3--8-8-8-8--7-7-7-7--2-2-2-2--3-3-3-3
D|-8-8-8-8--8-8-8-8--3-3-3-3--5-5-5-5--8-8-8-8--8-8-8-8--3-3-3-3--5-5-5-5
A|-6-6-6-6--8-8-8-8--3-3-3-3--5-5-5-5--6-6-6-6--8-8-8-8--3-3-3-3--5-5-5-5
E|-6-6-6-6--6-6-6-6--1-1-1-1--3-3-3-3--6-6-6-6--6-6-6-6--1-1-1-1--3-3-3-3

D# A# F Gm D#m A# D
E|-6-6-6-6--6-6-6-6--1-1-1-1--3-3-3-3--6-6-6-6--6-6-6-6--5-5-5-5-5-5-5-5
B|-8-8-8-8--6-6-6-6--1-1-1-1--3-3-3-3--7-7-7-7--6-6-6-6--7-7-7-7-7-7-7-7
G|-8-8-8-8--7-7-7-7--2-2-2-2--3-3-3-3--8-8-8-8--7-7-7-7--7-7-7-7-7-7-7-7
D|-8-8-8-8--8-8-8-8--3-3-3-3--5-5-5-5--8-8-8-8--8-8-8-8--7-7-7-7-7-7-7-7
A|-6-6-6-6--8-8-8-8--3-3-3-3--5-5-5-5--6-6-6-6--8-8-8-8--5-5-5-5-5-5-5-5
E|-6-6-6-6--6-6-6-6--1-1-1-1--3-3-3-3--6-6-6-6--6-6-6-6--5-5-5-5-5-5-5-5


on a cobweb afternoon
in a room full of emptiness
by a freeway i confess
i was lost in the pages

up above full of death
reading, i will die alone
if our god will lay to rest
anywhere we wanna go

in your house, alone to be
room by room, patiently
i wait for you there, like a stone
i wait for you there
alone

on my deathbed i will pray
to love god's only angels
like a beggar to anyone
wilting me to heaven
to a place i recall
i was there so long ago
the sky was blue
the wind was bare
and they led me on

in your house, alone to be
room by room, patiently
i wait for you there, like a stone
i wait for you there
alooooone
alooooone

and long i read
until the day was gone
and i sat in regret
of all the things i've done
for all that i've blessed
and all that i've wronged
in dreams until my death
i will wander on

in your house, alone to be
room by room, patiently
i wait for you there, like a stone
i wait for you there
alooooone
alooooone
i dont no what effects they use for the song but just play around
till you find it

intro

e------------------------------------|
b------------------------------------|
g------------------------------------|
d--8------10-----------------13--12--|
a-----10-----8------12---------------|
E---------------10------11-----------| x2

verse

e------------------------------------|
b------------------------------------|
g------------------------------------|
d--8------10-----------------13--12--|
a-----10-----8------12---------------|
E---------------10------11-----------| x4

chorus

e-----------------------------------|
b-----------------------------------|
g-----------------------------------|
d--5----8----3----5-----------------|
a--5----8----3----5-----------------|
E--3----6----1----3-----------------| x2

e---------------------------------------|
b---------------------------------------|
g--8-------------------8---------7----7-|
d--8----5----3----5----8----5----7----7-|
a--6----5----3----5----6----5----5----5-|
E--6----3----1----3----6----3----5----5-|

verse

e----------------------------------|
b----------------------------------|
g----------------------------------|
d--8------10---------------13--12--|
a-----10------8------12------------|
E---------------10------11---------| x5

chorus

e----------------------|
b----------------------|
g----------------------|
d--5----8----3----5----|
a--5----8----3----5----|
E--3----6----1----3----| x2

e----------------------------------------------------|
b----------------------------------------------------|
g--8-------------------8---------7----7----7----7----|
d--8----5----3----5----8----5----7----7----7----7----|
a--6----5----3----5----6----5----5----5----5----5----|
E--6----3----1----3----6----3----5----5----5----5----|

solo

e-------------------------------------------------------|
b-------------------------------------------------------|
g--12--14-15----17-15-14-12----12--14-10----15--17--19--|
d-------------------------------------------------------|
a-------------------------------------------------------|
E-------------------------------------------------------|

e--18-17-------18-17-------18-17-------18-17--------|
b--------18-15-------18-15-------18-15-------18-15--|
g---------------------------------------------------|
d---------------------------------------------------|
a---------------------------------------------------|
E---------------------------------------------------|

e--------------------------17-18-17-18-17~--|
b--------------------18-20------------------|
g--12-14-15-17-19-20------------------------|
d-------------------------------------------|
a-------------------------------------------|
E-------------------------------------------|

break down

e------------------------------------------------------|
b------------------------------------------------------|
g--8-8-8-8-8-8-----------------------------------------|
d--8-8-8-8-8-8--8-8-8-8-8-8--3-3-3-3-3-3--5-5-5-5-5-5--|
a--6-6-6-6-6-6--8-8-8-8-8-8--3-3-3-3-3-3--5-5-5-5-5-5--|
E--6-6-6-6-6-6--6-6-6-6-6-6--1-1-1-1-1-1--3-3-3-3-3-3--|

e------------------------------------------------------|
b--7-7-7-7-7-7-----------------------------------------|
g--8-8-8-8-8-8-----------------------------------------|
d--8-8-8-8-8-8--8-8-8-8-8-8--3-3-3-3-3-3--5-5-5-5-5-5--|
a--6-6-6-6-6-6--8-8-8-8-8-8--3-3-3-3-3-3--5-5-5-5-5-5--|
E--6-6-6-6-6-6--6-6-6-6-6-6--1-1-1-1-1-1--3-3-3-3-3-3--|

e------------------------------------------------------|
b------------------------------------------------------|
g--8-8-8-8-8-8-----------------------------------------|
d--8-8-8-8-8-8--8-8-8-8-8-8--3-3-3-3-3-3--5-5-5-5-5-5--|
a--6-6-6-6-6-6--8-8-8-8-8-8--3-3-3-3-3-3--5-5-5-5-5-5--|
E--6-6-6-6-6-6--6-6-6-6-6-6--1-1-1-1-1-1--3-3-3-3-3-3--|

e-------------------------------------------------------|
b--7-7-7-7-7-7------------------------------------------|
d--8-8-8-8-8-8--8-8-8-8-8-8--7-7-7-7-7-7-7-7-7-7-7-7-7--|
g--8-8-8-8-8-8--8-8-8-8-8-8--7-7-7-7-7-7-7-7-7-7-7-7-7--|
a--6-6-6-6-6-6--8-8-8-8-8-8--5-5-5-5-5-5-5-5-5-5-5-5-5--|
E--6-6-6-6-6-6--6-6-6-6-6-6--5-5-5-5-5-5-5-5-5-5-5-5-5--|

chorus

e-----------------------|
b-----------------------|
d-----------------------|
g--5----8----3----5-----|
a--5----8----3----5-----|
E--3----6----1----3-----| x2

e----------------------------------------------------|
b----------------------------------------------------|
d--8-------------------8---------7----7----7----7----|
g--8----5----3----5----8----5----7----7----7----7----|
a--6----5----3----5----8----5----5----5----5----5----|
E--6----3----1----3----6----3----5----5----5----5----|

e-----------------|
b-----------------|
d--8--------------|
g--8--(let ring)--|
a--6--------------|
E--6--------------|
Artist: Audioslave 
Song: Like A Stone
Album: Audioslave
Author: A_Qu '03

Guitar Tuning: Standard (E A D G B e)

Key:
~ = Hand Vibrato
^ = Bend

Verse:
|e|---------------------------|e|
|B|---------------------------|B|
|G|---------------------------|G|
|D|--8-5--10-3--0-7--1-13-12--|D|
|A|---------------------------|A|
|E|---------------------------|E|

Chorus:
|e|-----------------------|e|
|B|-----------------------|B|
|G|--8--------------------|G|
|D|--8-----8-----3-----5--|D|
|A|--6-----8-----3-----5--|A|
|E|--------6-----1-----3--|E|

Solo:
|e|-------------------------------------------------------------------|e|
|B|-------------------------------------------------------------------|B|
|G|--12~--14~-15~---17~-15~-14~-12~---12~--14~-10~---14~-15~-17~-19~--|G|
|D|-------------------------------------------------------------------|D|
|A|-------------------------------------------------------------------|A|
|E|-------------------------------------------------------------------|E|

|e|--18-17-------18-17-------18-17-------18-17-------|e|
|B|-------18-15-------18-15-------18-15-------18-15--|B|
|G|--------------------------------------------------|G|
|D|--------------------------------------------------|D|
|A|--------------------------------------------------|A|
|E|--------------------------------------------------|E|

|e|---------------------------------17^-18^-17^-18^-17~--|e|
|B|-------------------------18^-20^----------------------|B|
|G|--12^-14^-15^-17^-19^-20^-----------------------------|G|
|D|------------------------------------------------------|D|
|A|------------------------------------------------------|A|
|E|------------------------------------------------------|E|

Bridge:
|e|--6-666--6-666--1-111-3-333--|e|
|B|--8-888--6-666--1-111-3-333--|B|
|G|--8-888--7-777--2-222-0-000--|G|
|D|--8-888--8-888--3-333-0-000--|D|
|A|--6-666--8-888--3-333-2-222--|A|
|E|---------6-666--1-111-3-333--|E|
Tabbed by:Dennis C.(Tubro01)



Intro / Verse: (with vibrato, chorus)
e |---------------|---------------|---------------|---------------|
B |---------------|---------------|---------------|---------4--3--|
G |--3------------|--5------------|-------2-------|---------------|
D |-------5-------|-------3-------|--0------------|--1------------|
A |---------------|---------------|---------------|---------------|
E |---------------|---------------|---------------|---------------|



Chorus: (distortion)
e |----------|----------|-------------|-----------| x2
B |----------|----------|-------------|-----------|
G |----------|--3-------|-------------|-----------|
D |--5-------|--3-------|--3----------|--5--------|
A |--5-------|--1-------|--3----------|--5--------|
E |--3-------|----------|--1----------|--3--------|

e |----------|----------|-------------|-----------|
B |----------|----------|-------------|-----------|
G |--8-------|----------|-------------|-----------|
D |--8-------|--5-------|--3----------|--5--------|
A |--6-------|--5-------|--3----------|--5--------|
E |--6-------|--3-------|--1----------|--3--------|

e |----------|----------|-------------|
B |----------|----------|-------------|
G |--8-------|----------|--7------7---|
D |--8-------|--5-------|--7------7---|
A |--6-------|--5-------|--5------5---|
E |--6-------|--3-------|--5----------|

Guitar Solo:
(Insane effects, bend into notes with whammy bar)
e |--15---------17-|--18----------|--20-------18--17-|--15--------|
B |----------------|--------------|------------------|------------|
G |----------------|--------------|------------------|------------|
D |----------------|--------------|------------------|------------|
A |----------------|--------------|------------------|------------|
E |----------------|--------------|------------------|------------|

e |--15---------17-|---------------|--18--20--22--22----|
B |----------------|--18-----------|--------------------|
G |----------------|---------------|--------------------|
D |----------------|---------------|--------------------|
A |----------------|---------------|--------------------|
E |----------------|---------------|--------------------|

(With whammy pedal boosted to 1 octave, wah-wah)
e |----------------| x 4
B |----------------|
G |-15--14---------|
D |---------15--12-|
A |----------------|
E |----------------|

e |----------------|----------------|----------------|----------|
B |----------------|----------------|----------------|----------|
G |----------------|---------10--12-|-14--15--14--15-|-14-------|
D |-------------10-|-12--13---------|----------------|----------|
A |-10--12--13-----|----------------|----------------|----------|
E |----------------|----------------|----------------|----------|

Interlude: (clean tone)
D# A# D D#
e |----------|-6---6-6--|----------|----------|
B |-8---8-8--|-6---6-6--|-7---7-7--|-8---8-8--|
G |-8---8-8--|-7---7-7--|-7---7-7--|-8---8-8--|
D |-8---8-8--|-8---8-8--|-7---7-7--|-8---8-8--|
A |-6---6-6--|-8---8-8--|-5---5-5--|-6---6-6--|
E |----------|-6---6-6--|----------|----------|

D#min C D Gmin
e |----------|----------|----------|-3---3-3--|
B |-7---7-7--|-5---5-5--|-7---7-7--|-3---3-3--|
G |-8---8-8--|-5---5-5--|-7---7-7--|-3---3-3--|
D |-8---8-8--|-5---5-5--|-7---7-7--|-5---5-5--|
A |-6---6-6--|-3---3-3--|-5---5-5--|-5---5-5--|
E |----------|----------|----------|-3---3-3--|

Final Chorus: (distortion)
e |----------|----------|-------------|-----------| x2
B |----------|----------|-------------|-----------|
G |----------|--3-------|-------------|-----------|
D |--5-------|--3-------|--3----------|--5--------|
A |--5-------|--1-------|--3----------|--5--------|
E |--3-------|----------|--1----------|--3--------|

e |----------|----------|-------------|-----------|
B |----------|----------|-------------|-----------|
G |--8-------|----------|-------------|-----------|
D |--8-------|--5-------|--3----------|--5--------|
A |--6-------|--5-------|--3----------|--5--------|
E |--6-------|--3-------|--1----------|--3--------|

e |----------|----------|-----|-----|-----|-----------|
B |----------|----------|-----|-----|-----|-----------|
G |--8-------|----------|--7--|--7--|--7--|--8--------|
D |--8-------|--5-------|--7--|--7--|--7--|--8--------|
A |--6-------|--5-------|--5--|--5--|--5--|--6--------|
E |--6-------|--3-------|--5--|--5--|--5--|--6--------|
*The End*
THE TOM MORELLO LIKE A STONE SOLO TABBED BY RUBEN RUIZ |__/~~~CALIIFORNIA~~~__/| 

do this with a digitech whammy pedal
riff 1
2:53-3:10
E|--------------------------------------------------
B|--------------------------------------------------
G|-12~-14-15~-17-15-14-12----12~-14/10~-15-17-19-19~
D|--------------------------------------------------
A|--------------------------------------------------
E|--------------------------------------------------

riff 2
3:10-3:18
E|-18-17------18-17------18-17------18-17-----
B|------18-15------18-15------18-15------18-15
G|--------------------------------------------
D|--------------------------------------------
A|--------------------------------------------
E|--------------------------------------------

riff 3
E|--------------------------17-18-17-18-17~--
B|--------------------18-20------------------
G|--12-14-15-17-19-20------------------------
D|-------------------------------------------
A|-------------------------------------------
E|-------------------------------------------

AUDIOSLAVE RULES
This Audioslave song is tuned up 1/2 a step to F, A#, D#, G#, C, F from what I
can tell (or capo on first fret). This tab is written for a retuned guitar, so if
you're using a capo, play it all in relation to the capo and not from what fret
it truely is

Intro/Verse
|----------------------
|----------------------
|------------------7-6-
|-7----9------6--------
|---9----7--4----5-----
|----------------------

Chorus
|------------------
|------------------
|-----------9------
|-4----7----9----4-
|-4----7----7----4-
|-2----5---------2- play twice

|---------------------------------------
|---------------------------------------
|-7---------9---------7---------6----6--
|-7----4----9----4----7----4----6----6--
|-5----4----7----4----5----4----4----4--
|------2---------2---------2------------

Verse
|----------------------
|----------------------
|------------------7-6-
|-7----9------6--------
|---9----7--4----5-----
|----------------------

Chorus
|------------------
|------------------
|-----------9------
|-4----7----9----4-
|-4----7----7----4-
|-2----5---------2- play twice

|---------------------------------------
|---------------------------------------
|-7---------9---------7---------6----6--
|-7----4----9----4----7----4----6----6--
|-5----4----7----4----5----4----4----4--
|------2---------2---------2------------

Solo
|------------7--------------------------7-9-9-9--17-16-------17-16-------17-16-
|-7---9-10-----10-9-7---7---9-/5-5---10----------------17-14-------17-14-------
|------------------------------------------------------------------------------
|------------------------------------------------------------------------------
|------------------------------------------------------------------------------
|------------------------------------------------------------------------------

|-------17-16--------------------------------------------
|-17-14-------17-14--------------------------------------
|------------------------------------9-11-13-14-13-14-13-
|----------------------------9-11-12---------------------
|--------------------9-11-12-----------------------------
|--------------------------------------------------------

Bridge thing
|--2----0----0----2----0----0----2----0----0----2---0----0----2----0----0------
|--3----2----0----3----0----0----3----0----0----3---0----0----3----0----0------
|--2----2----1----2----2----1----2----2----1----2---2----1----2----2----1----1-
|--0----2----2----0----4----2----0----4----2----0---4----2----0----4----2----2-
|-------0----2--------------2--------------2-------------2--------------2----2-
|------------0--------------0--------------0-------------0--------------0----0-

Chorus/Outro
|------------------
|------------------
|-----------9------
|-4----7----9----4-
|-4----7----7----4-
|-2----5---------2- play twice

|-----------------------------------------------------
|-----------------------------------------------------
|-7---------9---------7---------6----6----6----6----7-
|-7----4----9----4----7----4----6----6----6----6----7-
|-5----4----7----4----5----4----4----4----4----4----5-
|------2---------2---------2--------------------------

It should be all present and correct. if you have any questions, don't bother to
e-mail me, cos I probably won't read it, and if you're still thinking it sounds
wrong, retune your guitar 1/2 a step up or put a capo on the first fret, cos it
is right. if you really want to e-mail me with questions/advice/whatever
andrewbiles@hotmail.com
by:josh
band:Audioslave
album:Audioslave
song:Like A Stone
tuning:E A D G B E
date:november 22, 2002

by the way on the tuning tom morello said in guitar world
that he plays this in standard but tuned either one step up
or 1 half step up i guess he couldnt remember at the moment
since i wasnt sure either i just did this in standard

key:
~ = hold
b = bend
()= play only last time
||= on the last time play these not with light distortion and palm muted

intro and verse : clean
E---------------------------------
B---------------------------------
G---------------------------------
D----5-----3-----7-----8-----7----
A---------------------------------
E-3-----1-----5-----6-----5-----5-

chorus : light distortion
E------------------
B------------------
G-8----------------
D-8----8----3----5-
A-6----8----3----5-
E------6----1----3-

chorus 2 : light distortion
E----------------------------------------
B----------------------------------------
G-8--------------------------------------
D-8----8----3----5----(3----5----3----5)-
A-6----8----3----5----(3----5----3----5)-
E------6----1----3----(1----3----1----3)-

solo : distorted with some kinda effect i
just use a wah wah in the down position
E---------------------------------------------------------
B-------------------------------------------------18~-20~-
G-12~--14~--15~-14~--10-12--12~--14~--15~-15~-17~---------
D---------------------------------------------------------
A---------------------------------------------------------
E---------------------------------------------------------

E-22-20-------22-20-------22-20-------22-20-------
B-------22-20-------22-20-------22-20-------22-20-
G-------------------------------------------------
D-------------------------------------------------
A-------------------------------------------------
E-------------------------------------------------

E-----------------------------------
B-----------------------------------
G---2-3-5-7-8-10-12-14-15-14-15-14b-
D-5---------------------------------
A---0-1-3-5-6--8-10-12-13-12-13-12b-
E-3---------------------------------

breakdown : clean maybe acoustic
E-----------------------------------
B-8-8-8-8---------------------------
G-8-8-8-8-7-7-7-7-------------------
D-8-8-8-8-8-8-8-8-|3-3-3-3-5-5-5-5|-
A-6-6-6-6-8-8-8-8-|3-3-3-3-5-5-5-5|-
E---------6-6-6-6-|1-1-1-1-3-3-3-3|-


order:
intro/verse 6x
chorus 4x
intro/verse 6x
chorus 2 4x
solo 1x
breakdown 4x
chorus 2 4x