Audioslave — Set It Off

На этой странице Вы можете ознакомиться с 5 версиями подбора аккордов для гитары к песне "Set It Off" группы (исполнителя) "Audioslave".

#----------------------------------PLEASE NOTE---------------------------------#
#This file is the author's own work and represents their interpretation of the #
#song. You may only use this file for private study, scholarship, or research. #
#------------------------------------------------------------------------------#

Song: Set it Off
Artist: Audioslave
Album: Audioslave

/ - slide up
- slide down
h - hammer on (punch down finger on note without striking string)
+ - play note constantly until next part

Standard tuning: E A D G

Intro:
------

G|----------------|----------------|
D|--------------7-|--------------7-|
A|-----------/9---|-----------/9---|
E|-0-2-0-2--------|-0-2-0-2--------| x3

G|----------------|
D|----------------|
A|-----------/9-7-|
E|-0-2-0-2--------| x1


G|----------------|----------------|
D|--------------7-|--------------7-|
A|-----------/9---|-----------/9---|
E|-0-2-0-2--------|-0-2-0-2--------| x3

G|------------------|
D|------------------|
A|-----------/9-7-0-|
E|-0-2-0-2----------| x1


Verse:
------

G|----------------------------|
D|----------------------------|
A|----------------------------|
E|-2-0-2-x-x-2-0-2--2-0-5-2-0-| x3


G|--------------------|
D|--------------------|
A|---------------/7---|
E|-2-0-2-x-x-2-0----5-| x1


Chorus:
-------

G|----------|-----------|
D|--------7-|-----------|
A|-----/9---|-9-7---7-9-|
E|-2--------|-----9-----| x3

G|------------|
D|------------|
A|-----/9-7-0-|
E|-2----------| x1

(repeat verse, chorus, intro)

Bridge:
-------

G|-----------------|
D|-----------------|
A|-----------------|
E|-2-2---2-2---2-2-| x4

G|------|------|------|------|------------------------|------|-------|
D|------|------|------|------|------------------------|------|-------|
A|------|------|------|------|------------------------|------|-------|
E|-3----|-3----|-5----|-2----|-0--0--0--0--0--0--0--0-|-12---|-12---|


(repeat chorus, intro...)
Audioslave - Set It Off

Tabbed By Stephen Pang (piequat@hotmail.com)

This song is one of my favourites :)

Intro/Chorus End (except first chorus)
G|--------------2--| G|------------------|
D|----------/4-----| D|--------/4--2-----|
A|-----------------| x 3 A|---------------0--|
E|-0-2-0-2---------| E|-0-2-0-2----------|

Verse
G|--------------------------| G|------------------|
D|--------------------------| D|------------/2----|
A|--------------------------| x3 A|---------------0--|
E|-2-0-2--2-0-2--2-0-5-2-0--| E|-2-0-2--2-0-------|

Chorus
G|--------2-------------| G|--------------|
D|----/4-----4-2---2-4--| D|----/4--2-----|
A|---------------4------| x3 A|-----------0--|
E|-2--------------------| E|-2------------|

Bridge
G|----------------|
D|----------------|
A|----------------|
E|-2-2--2-2--2-2--|
Set It Off-Intro/Bridge/Outro/Main Riff

E|---------------|-----------------------------------------------------
B|---------------|-----------------------------------------------------
G|---------------|-----------------------------------------------------
D|---------------|---------7------------------7------------------------
A|---------------|-----/9-----------------/9---------------------9----7
E|-------0--2--0-|--2---------0--2--0--2---------0--2--0----2----------

--------------|-----------------------------------------------------|
--------------|-----------------------------------------------------|
--------------|-----------------------------------------------------|
--------------|-----------------------------------------------------|
--------------|------9---7--------------9---7-----------------------|
------0--2--0-|--2-----------5------2-----------0--2--0-------------|

Verse Riff

|-----------------------------------------------------------
|-----------------------------------------------------------
|-----------------------------------------------------------
|-----------------------------------------------------------
|-----------------------------------------------------------
|-----2-0-2-X-X-2-2-2-2-0-5-2-0--2-0-2-X-X-2-2-2-2-0-5-2-0--

----------------------------------------------|
----------------------------------------------|
----------------------------------------------|
----------------------------------------------|Reapeat
----------------------------------------------|
2-0-2-X-X-2-2-2-2-0-5-2-0--2-0-2-X-X-2-0/12--5|

Chorus Riff

|--------------------------------------------------------------------------
|--------------------------------------------------------------------------
|--------------------------------------------------------------------------
|-------7----------------|-------7----------------|-------7----------------
|----/9-----9-7-----7-9--|----/9-----9-7-----7-9--|----/9-----9-7-----7-9--
|--2-------------9-------|--2-------------9-------|--2-------------9-------

|-------------|------------------------------------------------------------
|-------------|------------------------------------------------------------
|-------------|------------------------------------------------------------
|-------------|------------------------------------------------------------
|-----9--7----|-----9--7---------------------------------------------------
|--2---------5|--2-------0-2-0---------------------------------------------

Middle Section
3 Bar Rest x4
|------------------|----------|-----------|--------------------------------
|------------------|--17------|-----------|--------------------------------
|------------------|--18------|--4--------|--4-----x-6---2-----------------
|------------------|--16------|--5--------|--5-----x-7---4-----------------
|------------------|----------|--5--------|--5-----x-7---4-----------------
|--2---------------|----------|--3--------|--3-----x-5---2-----------------

|--------------------------------------------------------------------------
|---------------------------------0----------------------------------------
|--2------------------------------1----------------------------------------
|--4-----------2-2-2-2-2-2-2-2----2----------------------------------------
|--4-----------2-2-2-2-2-2-2-2----2----------------------------------------
|--2-----------0-0-0-0-0-0-0-0----0--------------------------------12-----
by:josh
band:Audioslave
album:Audioslave
song:Set It Off
tuning:E A D G B E
date:December 17, 2002

im positive this is correct so save the bad ratings....

intro : with som effect
i have no idea what tom is doin in this intro maybe somebody
can figure it out and put it on corrects or something

preverse : heavy distortion
E----------------------------------------------------------
B----------------------------------------------------------
G----------------------------------------------------------
D---------4-/-7---------4-/-7---------4-/-7---------4----2-
A----------------------------------------------------------
E-0-2-0-2-------0-2-0-2-------0-2-0-2-------0-2-0-2--------

post preverse : heavy distortion
E------------
B------------
G------------
D------------
A-----0------
E------------

verse : heavy distortion and palm muted
E--------------------------------------------------------------------------------------
B--------------------------------------------------------------------------------------
G--------------------------------------------------------------------------------------
D--------------------------------------------------------------------------------------
A---------------------------------------------------------------------------------7----
E-2-0-x-x-2-0-2-0-5-2-0--2-0-2-x-x-2-0-5-2-0--2-0-2-x-x-2-0-5-2-0--2-0-2-x-x-2-0-----5-

chorus : heavy distortion
E--------------------
B--------------------
G--------------------
D-------7------------
A----9-----9-7---7-9-
E-2------------9-----

post chorus :
heavy distortion
E---------------
B---------------
G---------------
D---------------
A-----9---7---0-
E-2-------------

prebreakdown :
heavy distortion
E---------
B---------
G---------
D---------
A---------
E-0-2-0-2-

breakdown 1 : heavy distortion and wah wah
on this part all you do is turn on the wah-wah pedal
and press it down and then pull the electrical chord
out of the guitar and touch the tip of it to the pickup
that you are using

breakdown 2 : clean
E----------------------------------------------
B----------------------------------------------
G----------------------------------------------
D-5---5---7---4--------------------------------
A-5---5---7---4---2-2-2-2-2-2-2-2--------------
E-3---3---5---2---0-0-0-0-0-0-0-0----------12/-

outro : heavy distortion
E---------------------------------------------------------------
B---------------------------------------------------------------
G---------------------------------------------------------------
D---------4-/-7---------4-/-7---------4-/-7---------4----2------
A-------------------------------------------------------------0-
E-0-2-0-2-------0-2-0-2-------0-2-0-2-------0-2-0-2-------------

order:
intro
preverse 2x
postpreverse 1x
verse 2x
chorus 3x
postchorus 1x
chorus 3x
postchorus 1x
verse 2x
chorus 3x
postchorus 1x
chorus 3x
postchorus 1x
preverse 2x
prebreakdown 1x
breakdown1 4x
breakdown2 1x
chorus 3x
postchorus 1x
chorus 3x
postchorus 1x
preverse 1x
outro 1x
Artist: Audioslave
Song: Set It Off (intro)
Album: Audioslave
Tabber: CrayzeMF

I hope this is right. Use tremelo.

e|-------------------------
b|-------------------------
g|---------4--5p4---------- x4
d|-----------------4/9-----
a|-------------------------
E|---0--2------------------

e|-------------------------
b|-------------------------
g|------------------------- x4
d|-------------------------
a|-------------------------
E|---0--2p0h2p0--2---------

e|-------------------------
b|-------------------------
g|---------4--5p4----------
d|-----------------4/9-----
a|-------------------------
E|---0--2------------------

e|-------------------------
b|-------------------------
g|---------4--5p4----------
d|-----------------4/7-----
a|-------------------------
E|---0--2------------------

Ok i hope you could all agree with this.