Audioslave — Shadow On The Sun

На этой странице Вы можете ознакомиться с 3 версиями подбора аккордов для гитары к песне "Shadow On The Sun" группы (исполнителя) "Audioslave".

Song: Shadow on the Sun
Band: Audioslave
Album: Audioslave (2002)
Tabbed By: Dan Baker (bassplayerbaker@hotmail.com
5-String Bass

Guitar Intro- Rest for 11 Ѕ bars

Bass fill-
G-|---------|
D-|---------|
A-|-7h8p7-5-|
E-|---------|
B-|---------|

Verse 1- x8
G-|------------------------|
D-|-/9-9-9-9-9-------------|
A-|------------------------|
E-|------------------------|
B-|------------0---0-3-3-5-|

Chorus 1-
G-|---------------------------------------------------------|
D-|---------------------------------------------------------|
A-|---------------------------------------------------------|
E-|------------------------------------------------------/5-|
B-|-5--3--0---0-5-3-5--3--0---0-5-3-5--3--0---0-5-3-5—-3----|

Verse 2- x4
G-|----------------|
D-|-/9-9-9-9-9-----|
A-|----------------|
E-|----------------|
B-|------------0---|

Bass Fill x1
Verse 1 x8

Chorus 2-
G-|------------------------------------------------------|
D-|------------------------------------------------------|
A-|------------------------------------------------------|
E-|------------------------------------------------------|
B-|-5--3--0---0-5-3-5--3--0---0-5-3-5--3--0---0-5-3-5—-3—|

G-|----------------|
D-|----------------|
A-|----------------|
E-|----------------|
B-|-5-7-5--3-5-3-0-|

G-|---------------------------------------------------------|
D-|---------------------------------------------------------|
A-|---------------------------------------------------------|
E-|------------------------------------------------------/5-|
B-|-5--3--0---0-5-3-5--3--0---0-5-3-5--3--0---0-5-3-5—-3----|
Guitar Solo-
G-|----------------------------------------------|
D-|----------------------------------------------|
A-|-------------------55555555-----------------5-|
E-|-77777777-55555555----------5555555-----5-7---|
B-|------------------------------------5-7-------|

G-|------------------------------------|
D-|------------------------------------|
A-|-------------------55555555-7777777-|
E-|-77777777-55555555------------------|
B-|------------------------------------|

Chorus 1 x1

Bridge- x3
G-|------------------------------------|
D-|------------------------------------|
A-|-------------------55555555---------|
E-|-77777777-55555555----------5555555-|
B-|------------------------------------|

Bridge 2-
G-|------------------------------------|
D-|------------------------------------|
A-|-------------------55555555-7777777-|
E-|-77777777-55555555------------------|
B-|------------------------------------|

Chorus 2 x1

Outro- x12
G-|-----------------------|
D-|-----------------------|
A-|-----------------------|
E-|-/7-----x-5-7---------|
B-|-----3-5-------x-3-5-0-|

Final Riff- x8
G-|-----------------|
D-|-----------------|
A-|-----------------|
E-|-----------------|
B-|-3-0-3-0-3-0-3-0-|
artist: audioslave
song: Shadow on the Sun
tabbedby: thedarkwinbass@yahoo.com

Tunned like Gasoline
from low to high : B A D G b e

intro: clean
|--------------------------------------------------------------------|
|--------------------------------------------------------------------|
|----7---7---7---7---7---7---7---7----6---6---6---6---6---6---6---6--|
|--9---9---9---9---9---9---9---9----7---7---7---7---7---7---7---7----|
|--------------------------------------------------------------------|
|--------------------------------------------------------------------|2x

verse: clean
|--------------------------------------------------------------------|
|--------------------------------------------------------------------|
|----7---7---7---7---7---7---7---7----6---6---6---6---6---6---6---6--|
|--9---9---9---9---9---9---9---9----7---7---7---7---7---7---7---7----|
|--------------------------------------------------------------------|
|--------------------------------------------------------------------|8x

distorted guitar starts chorus on A|--(2)-------------|
8th repeat about half a measure before B|--(0)---(0)-7-3---|
with gradual volume increase

chorus: distorted
|---------------------------------------------------------------|
|---------------------------------------------------------------|
|---------------------------------------------------------------|
|-------(4)--------------(4)--------------(4)-------------------|
|--------2----------------2----------------2--------------------|
|--5--3--0----0-7-3-5--3--0----0-7-3-5--3--0----0-7-3-5--3--10--|

verse: 6x

chorus: distorted
|----------------------------------------------|
|----------------------------------------------|
|----------------------------------------------|
|-------(4)--------------(4)--------------(4)--|
|--------2----------------2----------------2---|
|--5--3--0----0-7-3-5--3--0----0-7-3-5--3--0---|

|------------------------------|
|------------------------------|
|------------------------------|
|------------------------------|
|------------------------------|
|--0-7-3-5--3--5-7-5--3-5-3-0--|

|---------------------------------------------------------------|
|---------------------------------------------------------------|
|---------------------------------------------------------------|
|-------(4)--------------(4)--------------(4)-------------------|
|--------2----------------2----------------2--------------------|
|--5--3--0----0-7-3-5--3--0----0-7-3-5--3--0----0-7-3-5--3--10--|

solo: (morello strikes the note and goes for his toggle switch to
make the muting sound. Or just mute note w/ tremelo picking)
e|------------------------------------------------------------------------|
b|-12-xxxxxxxxxxxxxxxxxxxxxxxxxxxxxxxx-10-xxxxxxxxxxxxxxxxxxxxxxxxxxxxxxxx|

e|-10-xxxxxxxxxxxxxxxxxxxxxxxxxxxxxxxx-|
b|-------------------------------------|

e|-------------------------------------|
b|-10-xxxxxxxxxxxxxxxxxxxxxxxxxxxxxxxx-|

e|-10-xxx...xxx--14-xxx...xxx--17-xxx...xxx--22-xxx...xxx--|
b|-12-xxx...xxx--14-xxx...xxx--15-xxx...xxx--19-xxx...xxx--|

w/ whammy ^press down on whammy
e|----------------------|
b|-12^-12-12-12-12-12---|4x

e|-17-16-17-16-14-16-17-17-16-14----14-16-17--|
b|-------------------------------17-----------|about 4x w/ variations

finish w/
e|-------16-14----14-14--12--|
b|-12-12-------17--------12--|

verse: clean
e|-77777777777777777777777777777777-|
b|----------------------------------|2x

then continue w/ this while 2nd guitar continues w/ 7777777....
|--------------------------------------------------------------------|
|--------------------------------------------------------------------|
|----7---7---7---7---7---7---7---7----6---6---6---6---6---6---6---6--|
|--9---9---9---9---9---9---9---9----7---7---7---7---7---7---7---7----|
|--------------------------------------------------------------------|
|--------------------------------------------------------------------|6x

chorus: distorted
|----------------------------------------------|
|----------------------------------------------|
|----------------------------------------------|
|-------(4)--------------(4)--------------(4)--|
|--------2----------------2----------------2---|
|--5--3--0----0-7-3-5--3--0----0-7-3-5--3--0---|

|------------------------------|
|------------------------------|
|------------------------------|
|------------------------------|
|------------------------------|
|--0-7-3-5--3--5-7-5--3-5-3-0--|

|---------------------------------------------------------------|
|---------------------------------------------------------------|
|---------------------------------------------------------------|
|-------(4)--------------(4)--------------(4)--------------(4)--|
|--------2----------------2----------------2----------------2---|
|--5--3--0----0-7-3-5--3--0----0-7-3-5--3--0----0-7-3-5--3--0---|

outro: distorted
D|---------------------------|
A|---------------------------|
B|--123--5-0-10-12-3-5-0--|16x

D|-------------------|
A|-------------------|
B|--3p0-3p0-3p0-3p0--|4x

there you go...hope it's good. questions comments welcomed.
This is how i play the song, and it sounds pretty good

^:Whole note |: eighth note | : sixteenth note |: thirtysecond note
*:Half Note - = =
|:Quarter note -

*(): harmonic
!: False harmonic
/: Slide


(B) (D) (A) (C#)
e------------------------------------------------------
b------------------------------------------------------
g---7--7--7--7--7--7--7--7-----6--6--6--6--6--6--6--6--
d--9--9--9--9--9--9--9--9-----7--7--7--7--7--7--7--7---
a------------------------------------------------------
E------------------------------------------------------
|| || || || || || || || || || || || || || || || (16th notes)
===== ===== ===== ===== ===== ===== ===== =====


(play this clean until the chorus which is like 10 times) [16th notes]


(Play this bit 3 times) (the fourth time, play this)
E5 D5 B5 (B)(F#)(D)
e--------------*(7)---------|--------------------
b-----------------*(7)------|--------------------
g----------------------*(7)-|--------------------
d-14--12----9---------------|-14--12--9--9---9---
a-14--12----9---------------|-14--12--9--9---9---
E-12--10----7---------------|-12--10--7--10--7---
|
| | | | | | | | | | | |
- ====== =====

(Play this whole thing twice with distortion, Heavy overdive, spike mid Fq)


The solo (sounds perfect, don't argue) [pre-pre-solo]

e--------12-----10-14-17-22--
b-12--10----10--12-12-15-22--
g----------------------------
d----------------------------
a----------------------------
E----------------------------

^ ^ ^ ^ ^ ^ ^ ^
[pre-solo]
e-------19-19---19-19--19-19--19-19--19-19--19-
b-------19-19---19-19--19-19--19-19--19-19--19-
g-16-16------16------16------16----16-----16---
d----------------------------------------------
a----------------------------------------------
E----------------------------------------------

| | | | | | | | | | | | | | | | | |
============================================ (32nd notes)
--------------------------------------------
[cool solo]

e-16/17/16-14-16-17-17----16/17/16-14-17-17------------------------------
b-12-12-12-12-12-12-12----12-12-12-12-12-12------------------------------
g-----------------------------------------------16h1716-16--16h17h16-16--
d-----------------------------------------------16------16--16-------16--
a------------------------------------------------------------------------
E------------------------------------------------------------------------

| | | | | | | | | | | | | | | | | | | | |
======= - ===== ======= - = ====== - ======= -


There you go, the solo, sounds perfect. Use wah and delay.


Outro

e---------------------|-------
b---------------------|-------
g---------------------|-------
d----------9-7-9------|-------
a--------------------7|--------
E-14/7--10-------7-10-|-14/7---

| | | | | | | | |
- - === ---------

Use distortion.

There you go, this song is In Bm, the time sig is 3/4 and the tempo 65-69 quarter
notes per minute

Have fun


Tabbed by Warm_Machine